Song: begin to start
Band: mxpx
Album: let it happen
tabbed by: *superad13* @ aol.com

*this is such a beating of a song, its my favorite oe on the cd*

intro~

G:--------9-------------------------------------------------------
D:-----6---9--6-7--6------------------------------------------------
A:0-7-------------9-----------------------------------------------
E:---------------------------------------------------------------

verse~
G:---------------------------------------------------------------
D:---------------------------------------------------------------
A:-7777777777--------------------------------------------------------------
E:--------------------7777777777--5555555555 --7777777777-------------------

chorus~
G:---------------------------------------------------------------
D:---------------------------------------------------------------
A:555555555555-----------------------777777777777-----------------------------
--
E:----------------------777777777777------------------------777777777777------
--

bridge solo thing~
G:---------------------------------------------------------------
D:---------------------------------------------------------------
A:77777777777----------------------555-------666-------66-77------------------
-----
E:---------------------77777777777-------777-------777----------7-------------
-----

*thats about it kids. im not really sure about the end o' the solo, so lemme
know if you can fix it up*




Ваше мнение



Капча