Intro
E--x--x--x--xxx---x--x--x--xxx---x--x--x--xxx---x--x--x--xxx--------
B--x--x--x--xxx---x--x--x--xxx---x--x--x--xxx---x--x--x--xxx--------
G--7--7--7--777---5--5--5--555---x--x--x--xxx---x--x--x--xxx-------- x2
D--7--7--7--777---5--5--5--555---5--5--5--555---7--7--7--777--------
A--5--5--5--555---3--3--3--333---5--5--5--555---7--7--7--777--------
E--x--x--x--xxx---x--x--x--xxx---3--3--3--333---5--5--5--555--------
(PM)..............................................................
E--x--x--x--xxx---x--x--x--xxx---x--x--x--xxx---x--x--x--xxx--------
B--x--x--x--xxx---x--x--x--xxx---x--x--x--xxx---x--x--x--xxx--------
G--7--7--7--777---x--x--x--xxx---5--5--5--555---x--x--x--xxx-------- x2
D--7--7--7--777---7--7--7--777---5--5--5--555---5--5--5--555--------
A--5--5--5--555---7--7--7--777---3--3--3--333---5--5--5--555--------
E--x--x--x--xxx---5--5--5--555---x--x--x--xxx---3--3--3--333--------
(PM)................................................................
verse:
play this twice
E--x--x--x--xxx---x--x--x--xxx---x--x--x--xxx---x--x--x--xxx--------
B--x--x--x--xxx---x--x--x--xxx---x--x--x--xxx---x--x--x--xxx--------
G--7--7--7--777---x--x--x--xxx---5--5--5--555---x--x--x--xxx-------- x2
D--7--7--7--777---7--7--7--777---5--5--5--555---5--5--5--555--------
A--5--5--5--555---7--7--7--777---3--3--3--333---5--5--5--555--------
E--x--x--x--xxx---5--5--5--555---x--x--x--xxx---3--3--3--333--------
if you have two guitarists play this and the part before at the same time
DDDDDD AAAAAA CCCCCC GGGGGG
E--222222----000000----000000----333333-----------------------------
B--333333----222222----111111----000000-----------------------------
G--222222----222222----000000----000000-----------------------------x2
D--000000----222222----222222----000000-----------------------------
A--xxxxxx----xxxxxx----333333----222222-----------------------------
E--xxxxxx----xxxxxx----xxxxxx----333333-----------------------------
E--x--x--x--xxx---x--x--x--xxx---x--x--x--xxx---x--x--x--xxx--------
B--x--x--x--xxx---x--x--x--xxx---x--x--x--xxx---x--x--x--xxx--------
G--7--7--7--777---x--x--x--xxx---5--5--5--555---x--x--x--xxx-------- x2
D--7--7--7--777---7--7--7--777---5--5--5--555---5--5--5--555--------
A--5--5--5--555---7--7--7--777---3--3--3--333---5--5--5--555--------
E--x--x--x--xxx---5--5--5--555---x--x--x--xxx---3--3--3--333--------
Chorus:
play first section with PM, second section without
E--x--x--x--xxx---x--x--x--xxx---x--x--x--xxx---x--x--x--xxx--------
B--x--x--x--xxx---x--x--x--xxx---x--x--x--xxx---x--x--x--xxx--------
G--7--7--7--777---9--9--9--999---x--x--x--xxx---x--x--x--xxx-------- x2
D--7--7--7--777---9--9--9--999---9--9--9--999---7--7--7--777--------
A--5--5--5--555---7--7--7--777---9--9--9--999---7--7--7--777--------
E--x--x--x--xxx---x--x--x--xxx---7--7--7--777---5--5--5--555--------
(PM)..............................................................
E--x--x--x--xxx---x--x--x--xxx---x--x--x--xxx---x--x--x--xxx--------
B--x--x--x--xxx---x--x--x--xxx---x--x--x--xxx---x--x--x--xxx--------
G--7--7--7--777---9--9--9--999---x--x--x--xxx---x--x--x--xxx-------- x2
D--7--7--7--777---9--9--9--999---9--9--9--999---7--7--7--777--------
A--5--5--5--555---7--7--7--777---9--9--9--999---7--7--7--777--------
E--x--x--x--xxx---x--x--x--xxx---7--7--7--777---5--5--5--555--------
After chorus reapeat everything again except intro




Ваше мнение



Капча