Mushroomhead - Sun Doesn't Rise
Album: XIII
Instrument: Guitar
Tuning: Standard
Effects: DISTORTION and Delay (if wanted..easier w/)
Intro/Verse 5x
E|----------------||
B|----------------||
G|----------------||
D|3--3-33-3-33-3--||
A|3--3-33-3-33-3--||
E|3--3-33-3-33-3--||
PM|-- - -|
Verse Ending 1x
E|----------------||
B|----------------||
G|----------------||
D|3--3-33--5-9-7-3||
A|3--3-33--5-9-7-3||
E|3--3-33--5-9-7-3||
Chorus 5x
E|----------------||
B|----------------||
G|----------------||
D|3--3-33-3-555---||
A|3--3-33-3-555---||
E|3--3-33-3-555---||
Chorus Ending 1x
E|----------------||
B|----------------||
G|----------------||
D|3--3-33--5-9-7-3||
A|3--3-33--5-9-7-3||
E|3--3-33--5-9-7-3||
Outro 5x
E|-----------------------------||
B|-----------------------------||
G|-----------------------------||
D|3--5--9--7-------3--3-33-3333||
A|3--5--9--7-------3--3-33-3333||
E|3--5--9--7-------3--3-33-3333||
/Omit for repeats PM|----|
Outro Continued 5x
E|----------------||
B|----------------||
G|----------------||
D|3--3-33-3-33-3-3||
A|3--3-33-3-33-3-3||
E|3--3-33-3-33-3-3||
PM|-- - -|
Order:
Intro/Verse
Verse Ending
Verse
Verse Ending
Chorus
Chorus Ending
Chorus
Chorus Ending
Verse
Verse Ending
Verse
Verse Ending
Chorus
Chorus Ending
Chorus
Chorus Ending
Outro
Outro Continued





Ваше мнение



Капча