Intro
__________________________ Verse
/ . . . . . . . . . . . . .\ . . . . . . . . . . .
E|---------------|------------|---------------|----------
B|---------------|-3/15-------|---------------|----------
G|---------------|------------|---------------|----------
D|-5--5--5--5/0--|------------|-x-x--x-x--x-x-|----------
A|-5--5--5--5/0--|------------|-x-x--x-x--x-x-|-12/0\12--
D|-5--5--5--5/0--|------------|-x-x--x-x--x-x-|----------
Chorus (open chords)
. . . . . . . . . . . . . . .
E|----------------------------------
B|----------------------------------
G|-----------7-----------7----------
D|-----6-----5-----6-----5-------6--
A|--4--4--5-----4--4--5-----4----4--
D|--4-----5-----4-----5-----4-------
Bridge1
E|--------------
B|--------------
G|-4--4----6--6-
D|-4--4----6--6-
A|-2--2----4--4-
D|--------------
Bridge2
Let chords ring
E|---------
B|---------
G|-2*---3*-
D|-2*---3*-
A|-0*---1*-
D|---------
Bridge3
Small Solo
E|-2-----3-------5-6-----2-
B|---3------3--------3-----
G|-----2------2--------2---
D|-------------------------
A|-------------------------
D|-------------------------
Play bridge 1 again!





Ваше мнение



Капча