song: one more day
Band: mushroomhead
Album: XIII

Intro
PM (A)
---------------
---------------
---------------
---------------
-00------------
-00------------
let ring:(B)
---------------
---------------
---------------
---------------
-0-------------
-0-------------
let the notes ring:(C)
---------------
---------------
---------------
---------------
-0232----------
-0232----------
let ring:(D)
---------------
---------------
-10-9-8-7-6----
-XX-X-X-X-X----
-8--7-6-5-4----
---------------
let ring:(E)
---------------
---------------
---------------
---------------
-02358---------
-02358---------

Order:
A X2
B
A X2
C X2
A X2
B
A
C X7
D
E
A X2
B
A X2
C X8
B

Got It!





Ваше мнение



Капча