Artist:Mushroomhead
Song:Kill Tommorow
Album:XXII
Tuning: Drop B Tuning
INTRO/VERSE 1
e----------------------------------------
b----------------------------------------
g----------------------------------------
D-10-0-10-0-10-0--0---10-0-10-0--3-5-6p5-
A-10-0-10-0-10-0--0---10-0-10-0--3-5-6p5-
D-10-0-10-0-10-0--0---10-0-10-0--3-5-6p5-
VERSE 2
e--------------------------------------------
b--------------------------------------------
g--------------------------------------------
D--------------------------------------------
a--------------------------------------------
d-0000000000000000000000000000000000000000---
pm>>
*listen first to Palm mute at the right tempo
CHORUS
e---------------------
b---------------------
g-7---5--7------------
d-7---5--7--8-10------
a-5---3--5--8-10------
d-----------8-10------

BRIDGE
e-------------------
b-------------------
d-------------------
d-6-5-9-8---6-5-9-8-
a-6-5-9-8---6-5-9-8-
d-6-5-9-8---6-5-9-8-





Ваше мнение



Капча