Empty Spaces - Mushroomhead

By: Jon Craven ([email protected])
For questions, comments, feedback, an outline of the timing, write the above
address.

(4/4)(106 bpm)
5-string tuned a quarter step down

* = note held for an eighth beat
P - popped note
h = hammer-on

Intro pt.1: (x2)(0:03)
|----------------|----------------|----------------|----------------|
|----------------|----------------|----------------|----------------|
|----------------|----------------|----------------|----------------|
|0-*-*-*-*-*-*-*-|2-*-*-*-*-*-*-*-|3-*-*-*-*-*-*-*-|0-*-*-*-*-*-*---|
|----------------|----------------|----------------|--------------3-|

|----------------|----------------|----------------|----------------|
|----------------|----------------|----------------|----------------|
|----------------|----------------|----------------|----------------|
|0-*-*-*-*-*-*-*-|*-*-*-*-*-*-*-*-|*-*-*-*-*-*-*-*-|*-*-*-*-*-*-*-*-|
|----------------|----------------|----------------|----------------|

Intro pt.2: (0:39)
|----------------|----------------|----------------|----------------|
|----------------|----------------|----------------|----------------|
|----------------|----------------|----------------|----------------|
|7-*-*-*-*-*-*-*-|*-*-*-*-*-*-*-*-|2-*-*-*-*-*-*-*-|*-*-*-*-*-*-*-*-|
|----------------|----------------|----------------|----------------|

|----------------|----------------|----------------|----------------|
|----------------|----------------|----------------|----------------|
|----------------|----------------|----------------|----------------|
|7-*-*-*-*-*-*-*-|*-*-*-*-*-*-*-*-|2-*-*-*-*-*-*-*-|*-*-*-*-*-*-3-2-|
|----------------|----------------|----------------|----------------|

|----------------|----------------|----------------|----------------|
|----------------|----------------|----------------|----------------|
|----------------|----------------|----------------|----------------|
|0-*-*-*-*-*-*-*-|2-*-*-*-*-*-*-*-|3-*-*-*-*-*-*-*-|5-*-*-*-*-*-*-*-|
|----------------|----------------|----------------|----------------|
P P
|----------------|------------------|-------------------|----------------|
|----------------|7h9-*-*-*-*-*-*-*-|7h9-7--------------|----------------|
|----------------|------------------|--------9-7--------|----------------|
|7-*-*-*-*-*-*-*-|------------------|--------------10-9-|7-*-*-*-*-*-*-*-|
|----------------|------------------|-------------------|----------------|

Verse: (x4)(1:15)
|----------------|----------------|----------------|----------------|
|----------------|----------------|----------------|----------------|
|----------------|----------------|----------------|----------------|
|0-*-*-*-*-*-*-*-|2-*-*-*-*-*-*-*-|3-*-*-*-*-*-*-*-|2-*-*-*-*-*-3-2-|
|----------------|----------------|----------------|----------------|





Ваше мнение



Капча