Song - Casualties in B minor
Band - Mushroomhead

Articulations:
h - hammer on
V---| - strum upwards slowly, but not as a chord
|__| - hold (sustain)
() - ghost note

Tuning - standard (E A D G B e)
Tempo - Allegretto

RIFF I:

|-------------------|
|-*---------------*-|
|--------4----4-----|
|-----3---------3---|
|*-2------2h3-----*-|
|-------------------|
e e e e e e e e

RIFF II:
V-----|
|--------------|-----------------|------------------|
|--------------|-----------------|-----4--4--4------|
|---4----------|---------------3-|-(3)---------33---|
|-----2-2------|-(2)-----(2)-----|---------------32-|
|-2------------|-----------------|------------------|
|--------------|-----------------|------------------|
e e e q. h. e e e q q sssse
|______|_____| |___|

RIFF III:
V-----------------------------------------|
|--------------------|--------------------|
|--------------------|--------------------|
|-4--------4---------|-4--------3---------|
|----5--------4------|---3---------2------|
|------6---------5---|------4--------3----|
|--------7---------6-|--------5---------4-|
e e e e e e e e e e e e e e e e

RIFF IV:

V----------| V---|
|----------------|--------------|-------------------|
|----------------|--------------|-------------------|
|---4-5----------|--------------|------4--4--44-----|
|---------6------|------------3-|-(3)-----------3---|
|-2---------7-2--|-(2)---(2)----|----------------32-|
|----------------|--------------|-------------------|
e e e e e q. h e e e q q sssse
|___|____|

RIFF V:
V---------------------------------------------|
|----------------------|-----------------------|
|----------------------|-----------------------|
|-4----------4---------|-4----------5----------|
|----5----------6------|----7----------8-------|
|-------6---------7----|-------8----------9----|
|----------7---------8-|----------9---------10-|
e e e e e e e e e e e e e e e e

RIFF VI:
(Fade out with this one)
|----------------------------|
|----------------------------|
|-----4----4---4----5----5---|
|---3----3---3----3----3-----|
|-2----2----2---2----2----2--|
|----------------------------|
s s s s s s s s s s s s s s s

SONG SET UP:
RIFFS-
1
2
1
2
1
2
3
1
4
5
1
2
1
4
5
6





Ваше мнение



Капча