Born Of Desire
in normal tuning.
intro/chorus
E---2-2---2-2-2---2 2---2-2-2-------------
A---4-4---4-4-4---4-4--4- 4--4------------
D-----------------------------------------
G-----------------------------------------
B-----------------------------------------
E-----------------------------------------
Verse
E-22 222 222 111 222-222-222-1-----
A-22-222-222 111-222-222-222-1-----
D----------------------------------
G----------------------------------
B----------------------------------
E----------------------------------
version 2
BORN OF DESIRE
intro/chorus

E---2-2---2-2-2---2 2---2-2-2-------
A---4-4---4-4-4---4-4--4- 4--4------
D-----------------------------------
G-----------------------------------
B-----------------------------------
E-----------------------------------
Verse
E-22 222 222 111 222-222-222-1------
A-22-222-222 111-222-222-222-1------
D-----------------------------------
G-----------------------------------
B-----------------------------------
E-----------------------------------





Ваше мнение



Капча