Artista: MUSE
Саnзу: Uno
A very easy song , all the time is the same bassline , only a few variations ,
see the estructureґs song to play it.
Una саnзо molt fасil , tota lґestona йs la mateixa linea de baix , nоmйs hi ha
algunes variacions , mireu lґestructura de la саnзу per tocar-la вй.
PRE-INTRO

G|-------|
D|-------|
A|-------|
E|-0/7X-|

INTRO
G|------------------------------------------------------4--------------------------------------|
D|-------2----------2-----------2----------2----------4---4--------2----------2---------2------|
A|-----2---2------2---2---0-0-3---3--0-0-3---3---2-2---------0-0-3---3------2---2-----2---2----|
E|-0-0--------0-0-------------------------------------------------------0-0-------0-0----------|
G|------------------------------------------------------4-----------------|
D|-------2----------2-----------2----------2----------4---4--------2------|
A|-----2---2------2---2---0-0-3---3--0-0-3---3---2-2---------0-0-3---3----|
E|-0-0--------0-0-------------------------------------------------------0-|

BRIDGE
G|------------------------------------------------------4---------------------------|
D|-------2----------2-----------2----------2----------4---4--------2----------2-----|
A|-----2---2------2---2---0-0-3---3--0-0-3---3---2-2---------0-0-3---3------2---2---|
E|-0-0--------0-0-------------------------------------------------------0-0-------0-|
PRE-CHORUS
G|-----------|
D|-----------|
A|-----------|
E|-0/71/7X-|
1st CHORUS
G|------------------------------------------------------4----------------|
D|-------2----------2-----------2----------2----------4---4--------2-----|
A|-----2---2------2---2---0-0-3---3--0-0-3---3---2-2---------0-0-3---3---|
E|-0-0--------0-0------------------------------------------------------0-|
2nd CHORUS
G|------------------------------------------------------4-------------------------------------|
D|-------2----------2-----------2----------2----------4---4--------2---------2---------2------|
A|-----2---2------2---2---0-0-3---3--0-0-3---3---2-2---------0-0-3---3-----2---2-----2---2----|
E|-0-0--------0-0------------------------------------------------------0-0-------0-0--------0-|

ESTRUCTURA DE LA САNЗУ:
PRE-INTRO
INTRO
BRIDGE
PRE-CHORUS
1st CHORUS
BRIDGE (X2)
PRE-CHORUS
2nd CHORUS (x2)
1st CHORUS
Currada pel de sempre , anubis.
quelcom a dir-me : [email protected]




Ваше мнение



Капча