this is a great new song, listen to it!
intro
e------------------------------------------------------------------------
B----------3---------------3---------------3---------------3-------------
G------------------------------------------------------------------------
D--3-4-3-4---4-3-4-3-4-3-4---4-3-4-3-4-3-4---4-3-4-3-4-3-4---4-3-4-------
A------------------------------------------------------------------------
E------------------------------------------------------------------------
(bass+drums comes in)
e------------------------------------------------------------------------
B----------3---------------3---------------3---------------3-------------
G------------------------------------------------------------------------
D--3-4-3-4---4-3-4-3-4-3-4---4-3-4-3-4-3-4---4-3-4-3-4-3-4---4-3-4-------
A------------------------------------------------------------------------
E------------------------------------------------------------------------
verse
Bm D G D C#m
take...take all you need and i'll confescate your greed with broken heart
Bm D Gm D C#m
sell... and I'm selling memories at 50 pounds per year, and i'll keep on going
prechorus
e------------------------------------------------------------------------
B----------3---------------3---------------3---------------3-------------
G------------------------------------------------------------------------
D--3-4-3-4---4-3-4-3-4-3-4---4-3-4-3-4-3-4---4-3-4-3-4-3-4---4-3-4-------
A------------------------------------------------------------------------
E------------------------------------------------------------------------
chorus
F# Fm E
shame... It'll make you insane and i'll brake in your moves
F
you're to blame for all the life you're losing
G Gb Bm F# C#
you watch this space, yeah i'm going all the way
G F# B
and i'm not your slave to the grave or a servent for your rave nooooooooo
(the whole thing again and then:)
solo
e-----------------------------------
B----------3-----------3-4-3--------
G----------------------------4-3----
D--3-4-3-4---4-3-4-3-4-----------4-- X4
A-----------------------------------
E-----------------------------------
Chorus again




Ваше мнение



Капча