Artist: Muse
Song: The Groove
Album: Time Is Running Out Single
Transcribed By: James Ward
E-Mail: [email protected]
Date: 10/09/2003

Notes: I dont have the fx pedal to do the beginning bit, but its just ad-lib
crazyness, try it! As usual, any correction, I'll be happy to add them (and
credit you) but this is pretty accurate, nont tatally, by any means, but see what
you think. (I am about 40% sure about the solo, if you crank it enough you can't
hear anything anyway, so it sounds better ;-) )

Tuning: Standard eADGBE

Intro (properly meaty & heavy distortion)
e--------------------|--------------------|--------------------|--------------------|
A--------------------|--------------------|--------------------|--------------------|
D--------------------|---6--6-------------|--------------------|--------------------|
G----4-7-4-----------|---7----------------|--------7h9p7-------|--9-7---------------|
B---------4-3-2------|--0--4-5-6----------|---7-7h9-----9p7-7h9|-9----9-8-9---------|
E---2-2--------------|--------------------|--0-0---------------|--------------------| x3

e--------------------|--------------------|--------------------|--------------------|
A--------------------|--------------------|--------------------|--------------------|
D--------------------|---6--6-------------|--------------------|--------------------|
G----4-7-4-----------|---7----------------|--------7h9p7-------|-----7-4------------|
B---------4-3-2------|--0--4-5-6----------|---7-7h9-----9p7-7h9|---------4-3-2------|
E---2-2--------------|--------------------|--0-0---------------|--------------------|

--------------------------------------------------------------------------------------
chorus: So confused...

e--------------------|--------------------|--------------------|--------------------|
A--------------------|--------------------|--------------------|--------------------|
D---6--6-------------|--------------------|--------------------|--------------------|
G---7----------------|----6---------------|---9--12------------|-----7-4------------|
B--0--4-5-6----------|--7-----------------|--------------------|---------4-3-2------|
E--------------------|-0-4-5-6------------|--7--10--12-13-14---|--------------------|x2

--------------------------------------------------------------------------------------
Intro

Chorus
--------------------------------------------------------------------------------------
solo

e----------------------|----------------------|----------------|-(this is VERY rough)-|
A----------------------|----------------------|----------------|----------------------|
D-11-11-11p9--9--------|----------------------|----------------|----------------------|
G-----------11-11-9h11-|-11-11-9-7-9p7-9^11^9-|-7-7------------|--7^9-9/11------------|
B----------------------|----------------------|--9--9-7h9~~~---|---------------------|
E----------------------|----------------------|----------------|2-------5p2-5-2-0h2-|
(very distorded trem picking)
---------------------------------------------------------------------------------------
Chorus - There's also some fiddling in the background too, which goes something like this:

B-12^14-^14-^14-^14-^14-/15-14p12--15-14p12---------------------

then

D-11^12-11p9---11^12-11p9---11^12-11p9--------------------------




Ваше мнение



Капча