BAND : Muse
SONG : Sunburn (Acoustic)
ALBUM : B-Side
TABBED BY : Gabriel Romero

ABOUT:

Sunburn acoustic version.
If you need help with some tabs only send me an e-mail and
I'll try to help you. Any comments and suggestions are received
to this mail

TUNNING:

Both guitars in standar Tunning eBGDAE.

THE TAB:

The second guitar use capo on fifth fret.

INTRO:

Guitar 1 enter with this

Guitar 1
e---------0---------------0---------------0---------------0-------
B-----0-----0---0-----1-----1---1-----1-----1---1-----1-----1---1-
G---0---0-----0-----2---2-----2-----0---0-----0-----2---2-----2---
D-2---------------2---------------2---------------2---------------
A-----------------------------------------------------------------
E-----------------------------------------------------------------

then guitar two enter in second (0:13) to (0:19) with this

Guitar2 (capo on fret 5)
e---2---2------2-------2---2---2--
B------------3---------3---3-3----
G-4---4---------------------------
D--------------------4---4--------
A---------------------------------
E---------------------------------

then guitar 1 play the same and guitar 2 play this

Guitar 2
e---2-----2---------2-----2---------3-----3---------2-----2-------
B-----3-----3---3-----0-----0---0-----3-----3---3-----0-----0---0-
G-------4-----4---------0-----0---------4-----4---------0-----0---
D-4---------------2---------------5---------------2---------------
A-----------------------------------------------------------------
E-----------------------------------------------------------------

CHORUS:

Guitar 1 Guitar 2
e--2--3--0-- e-----------
B--1--1--0-- B--2--3--3--
G--2--2--0-- G--0--0--4--
D--2--2--2-- D--2--2--4--
A--0--0--2-- A--2--2--2--
E--0--0--0-- E--0--0--2--

INTERLUDE:

Guitar 1 the same of the INTRO

Guitar 2
e-------------5-6-7-6-5-----------------------5-6-7-6-5-----------
B-6-7-6-5-6-7-----------7-6-5-6-5-6-7-6-5-6-7-----------7-6-5-6-7-

Guitar 2
e-5-6-7-6-5-------------------5-6-7-6-5---------------------------
B-----------7-6-5-6-7-6-5-6-7-----------7-6-5-6-5-6h7-------------

then verse and chorus again, both guitars play the same

SOLO:

the solo begin in minute (2:36) and guitar 1 enter in minute (2:46)
during this ten seconds guitar 2 play alone, then guitar 2 enters
playing the same chords of chorus.

(2:36)
Guitar 2
e------------------------------------111111111112222222-2-2-2-2-2-
B-00000000000000000000000000000000000000000000000000000-0-0-0-0-0-

(2:46)- here enter guitar 1
Guitar2 (I'll not put the strumming for each note so find it)

e-7--10--9--7--6--3--2-----------------------
B-0--0---0--0--0--0--0--0--0--0--0--0--------
G-----------------------4--7--6--4--3--0--0--
D--------------------------------------5--4--
A--------------------------------------------
E--------------------------------------------

then the chorus again

OUTRO:

Here only guitar 2 plays.

Guitar 2 |
e-----2---3p2---/ /-----2---3p2---/ /-- |
B---3---3-----3-/ /---4---4-----4-/ /-- |
G-4-------------/ /-4-------------/ /-- |
D---------------/x4/---------------/x4/-- | x2
A---------------/ /---------------/ /-- |
E---------------/ /---------------/ /-- |

then

e-----2---3p2-5p2----
B---4---4---------4--
G-4------------------
D--------------------
A--------------------
E--------------------

If you need help with some tabs only send me an e-mail and
I'll try to help you. Any comments and suggestions are received
to this mail




Ваше мнение



Капча