Intro:
e. --------------------------------
b. --------------------------------
g. --------------------------------
d. -9-9-9-9-9-9-9-9-9-9-9-9-9-9-9-
a. --------------------------------
e. --7-7-7-7-7-7-7-7-7-7-7-7-7-7-7-

verse:
e. ---------------------------------------------------------------------
b. ---------------------------------------------------------------------
g. ---------------------------------------------------------------------
d. ---------------------------------------------------------------------
a. -9-9-9-9-9-9-9-9--2-2-2-2-2-2-2-2--4-4-4-4-4-4-4-4--6-6-6-6--7-7-7-7-
e. -7-7-7-7-7-7-7-7--1-1-1-1-1-1-1-1--2-2-2-2-2-2-2-2--4-4-4-4--5-5-5-5- x2

pre-chorus:
e. ------------------------------------------------------------------
b. ------------------------------------------------------------------
g. ------------------------------------------------------------------
d. ------------------------------------------------------------------
a. -5-5-5-5-5-5-5-5-5-5-5-5-5-5-5-5--6-6-6-6-6-6-6-6-6-6-6-6-6-6-6-6-
e. -3-3-3-3-3-3-3-3-3-3-3-3-3-3-3-3--4-4-4-4-4-4-4-4-4-4-4-4-4-4-4-4-

e. ------------------------------------------
b. ------------------------------------------
g. ------------------------------------------
d. ------------------------------------------
a. -5-5-5-5-5-5-5-5-5-5-5-5-5-5-5-5--6-------
e. -3-3-3-3-3-3-3-3-3-3-3-3-3-3-3-3--4-------

Chorus:
e. ------------ -------------------------------------------------------
b. ------------ -------------------------------------------------------
g. ------------ -------------------------------------------------------
d. ------------ -----9---9------11----11--------12------12-------------
a. ------------ -------------------------------------------------------
e. -4/10-9-8---- -7-7---7---9-9-----9-----10-10-----10------10-10-9-8-7- x7

it burns inside of me……
e. ---------------------------------
b. ---------------------------------
g. ---------------------------------
d. ---------------------------------
a. -9-9-9-9-9-9-9--5-5-5-5--4-4-4-4-
e. -7-7-7-7-7-7-7--3-3-3-3--2-2-2-2-

guitar solo:
e. -------------------------------------------
b. -/12--15-15-15-15-15-15-14--12-16-12-14-12-
g. -------------------------------------------
d. -------------------------------------------
a. -------------------------------------------
e. -------------------------------------------
go back and play the verse 4 times, play the pre-chorus and chorus again.

Middle section:
e. ------------------------------
b. ------------------------------
g. --------7^9-7-----------------
d. ----------------7-7-7-6^7-6---
a. ------------------------------
e. -7-7-7------------------------ x4

e. ------------------------------------------------------------------------
b. ------------------------------------------------------------------------
g. ------------------------------------------------------------------------
d. ------------------------------------------------------------------------
a. -9-9-9-9-9-9-9-9-11-11-11-11-11-11-11--5-5-5-5-5-5-5-5--4-4-4-4-4-4-4-4-
e. -7-7-7-7-7-7-7-7--9--9--9--9--9--9--9--3-3-3-3-3-3-3-3--2-2-2-2-2-2-2-2-
play the verse twice, pre-chorus and chorus to finish.




Ваше мнение



Капча