-Chords-
EADGBe EADGBe EADGBe EADGBe
x44222 xx0234 x4666x xx4432
F# D/G# C# Bm
---------------------------------------------------------------------------
|-_Intro_-| (clean sound)
e--------------------------------------------------|-
B----------------|.-------------------------------------------.|-
G--------------------------------------------------|-
D--4-4-4-4-4-...-|--4-4-4-4-4-4-4-4-4-4-4-4-4-4-4-4-4-4-4-4-4--|-
A----------------|.-5-5-5-5-5-5-5-5-5-5-5-5-5-5-5-5-0-0-0-0-0-.|-
E-----------------------7-7-7-7-7-7-7-7-5-5-5-5-5--|-

(Flat Picking)
F#m D/G#
e---------2-----------------2-----------------------4------------
B-----2-----2---2-------2-----2---2--------------3-----3---3-----
G---2---2-----2-------2---2-----2--------------2---2-----2-------
D-4-----------------4-----------------------0--------------------
A----------------------------------------------------------------
E----------------------------------------------------------------
C#
e----------4-----------------------------------------------------
B------3-----3---3-----------------6-----------------6-----------
G----2---2-----2---------------6-----6---6-------6-----6---6-----
D--0-------------------------6---6-----6-------6---6-----6-------
A--------------------------4-----------------4-------------------
E----------------------------------------------------------------
Bm
e----------2-----------------2-----------------------------------
B------3-----3---3-------3-----3---3-----------------------------
G----4---4-----4-------4---4-----4-------------------------------
D--4-----------------4-------------------------------------------
A----------------------------------------------------------------
E----------------------------------------------------------------
|-_Riff A_-|
(with distortion, flanger, etc...)
e------------------------------------------------------------
B------------------------------------------------------------
G------------------------------------------------------------
D--------------9---------------------------------------------
A-9-9h11-11b12---12-11-9-11-11b12-9--------------------------
E------------------------------------------------------------
(repeat)

|-_Verse_-| (with disto)
Strum the chords (down strum x12 each chord and listen to the song for the rythm)
F# / D/G# / C# / Bm (repeat)
|-_Riff B_-|
(with distortion, flanger, etc...) and strum fast
e------------7---------------------------------------------------
B-7-7h9-9b10---10-9-7-9b10-9-7-----------------------------------
G-x---------------------------------------------------------------
D-x---------------------------------------------------------------
A-x---------------------------------------------------------------
E-x---------------------------------------------------------------
----- Play Verse -----
|-_Solo_-| (with disto & flanger)
e----------------------------------------------------------------
B-77777777777/999999999/1010/12121212/14141414/15151515/171717/18
G----------------------------------------------------------------
D----------------------------------------------------------------
A----------------------------------------------------------------
E----------------------------------------------------------------
e-------/14-/14-/14-16-16-14-16-14---|--14-14h16-16b17-19-17-16-14
B-1818-------------------------------|.---------------------------
G-----------------------------------------------------
D-----------------------------------------------------
A------------------------------------|.---------------------------
E-----------------------------------------------------
e-16b17-16-14-----------------------------------------
B-------------.---------------------------------------
G-----------------------------------------------------
D-----------------------------------------------------
A-------------.---------------------------------------
E-----------------------------------------------------
|-_Outro_-| (with disto let ring)
F#m D/G#
e---------2-----------------------------------------4------------
B-----2------------------------------------------3---------------
G---2---2--------------------------------------2---2-------------
D-4-----------------------------------------0--------------------
A----------------------------------------------------------------
E----------------------------------------------------------------
C# Bm
e---------------------------------------------------2------------
B---------6-------------------------------------3----------------
G-----6---------------------------------------4---4--------------
D---6---6-----------------------------------4--------------------
A-4--------------------------------------------------------------
E----------------------------------------------------------------
----- Play Verse -----




Ваше мнение



Капча