Tabed by:Jan Dijkmans
Datum :4-10-2002
Title :Plug In Baby
Auteur :Muse
Album :Origins Of Symmetry
intro
E -----------------|--------^-^--------|-----------------|--------^-^----------|
B -----------------|-------7-8-7-------|-----------------|---9-7-7-8-7----7----|
G -----6-----6-7---|-6-7-9-------9-7-6-|---6-7---6-9-7-6-|-7-----------10---10-|
D -8-9---8-9-----9-|-------------------|-9-----9---------|---------------------|
A -----------------|-------------------|-----------------|---------------------|
E -----------------|-------------------|-----------------|---------------------|
E -----------------|----------------|
B -7-----------7-9-|-9-7----7-------|
G ---7-------7-----|-----10---7-6-7-| x2
D -----7---7-------|----------------|
A -------9---------|----------------|
E -----------------|----------------|
E -----------------|--------^-^--------|
B -----------------|-------7-8-7-------|
G -----6-----6-7---|-6-7-9-------9-7-6-|
D -8-9---8-9-----9-|-------------------|
A -----------------|-------------------|
E -----------------|-------------------|
Verse
E -------------------|---------------|---------------|---------------|
B -------------------|---------------|---------------|---------------|
G -------------------|---------------|---7---------7-|---7---------7-|
D -(9)---5---------5-|---5---------5-|-----------7---|-----------7---|
A ---------------5---|-----------5---|-5---x-5-5-----|-5---x-5-5-----|
E -----3---x-3-3-----|-3---x-3-3-----|---------------|---------------|
E ---------------|---------------|---------------|---------------|-----------|
B ---------------|---------------|---------------|---------------|-10--------|
G ---------------|---------------|---------------|---------------|----11-----|
D ---4---------4-|---4---------4-|---5---------5-|---5---------5-|-------12--|
A -----------4---|-----------4---|-----------5---|-----------5---|-----------|
E -2---x-2-2-----|-2---x-2-2-----|-3---x-3-3-----|-3---x-3-3-----|-----------|
E ---------------|----------|------------|----------|--------|----------|
B ---------------|-11-------|------------|-12-------|--------|-10-------|
G ---------------|----11----|------------|----12----|--------|----11----|
D ---------------|-------11-|------------|-------12-|--------|-------12-|
A ---------------|----------|------------|----------|--------|----------|
E ---------------|----------|------------|----------|--------|----------|
chorus
E ---------------|-------------------------|-------------------------|
B ---------------|-------------------------|-------------------------|
G ---------------|-11-11-11-11-11-11-11-11-|-------------------------|
D ---------------|-11-11-11-11-11-11-11-11-|-10-10-10-10-10-10-10-10-|
A ---------------|--9--9--9--9--9--9--9--9-|--9--9--9--9--9--9--9--9-|
E ---------------|-------------------------|-------------------------|
E -3-3-3-3-3-3-3-3-|-3-3-3-3-3-3-3-3-|-2-2-2-2-2-2-2-2-|
B -3-3-3-3-3-3-3-3-|-3-3-3-3-3-3-3-3-|-3-3-3-3-3-3-3-3-|
G -4-4-4-4-4-4-4-4-|-4-4-4-4-4-4-4-4-|-4-4-4-4-4-4-4-4-|
D -5-5-5-5-5-5-5-5-|-5-5-5-5-5-5-5-5-|-4-4-4-4-4-4-4-4-|
A -5-5-5-5-5-5-5-5-|-5-5-5-5-5-5-5-5-|-2-2-2-2-2-2-2-2-|
E -3-3-3-3-3-3-3-3-|-3-3-3-3-3-3-3-3-|-----------------|
E -2-2-2-2-2-2-2-2-|-3-3-3-3-3-3-3-3-|-3-3-3-3-3-3-3-3-|
B -3-3-3-3-3-3-3-3-|-3-3-3-3-3-3-3-3-|-3-3-3-3-3-3-3-3-|
G -4-4-4-4-4-4-4-4-|-4-4-4-4-4-4-4-4-|-4-4-4-4-4-4-4-4-|
D -4-4-4-4-4-4-4-4-|-5-5-5-5-5-5-5-5-|-5-5-5-5-5-5-5-5-|
A -2-2-2-2-2-2-2-2-|-5-5-5-5-5-5-5-5-|-5-5-5-5-5-5-5-5-|
E -2-2-2-2-2-2-2-2-|-3-3-3-3-3-3-3-3-|-3-3-3-3-3-3-3-3-|
E -2-2-2-2-2-2-2-2-|-0-0-0-0-0-0-0-0-|-3-3-3-3-3-3-3-3-|
B -3-3-3-3-3-3-3-3-|-3-3-3-3-3-3-3-3-|-3-3-3-3-3-3-3-3-|
G -4-4-4-4-4-4-4-4-|-4-4-4-4-4-4-4-4-|-4-4-4-4-4-4-4-4-|
D -4-4-4-4-4-4-4-4-|-4-4-4-4-4-4-4-4-|-5-5-5-5-5-5-5-5-|
A -2-2-2-2-2-2-2-2-|-----------------|-5-5-5-5-5-5-5-5-|
E -----------------|-2-2-2-2-2-2-2-2-|-3-3-3-3-3-3-3-3-|
E -3-3-3-3-3-3-3-3-|-2-2-2-2-2-2-2-2-|-2-2-2-2-2-2-2-2-|
B -3-3-3-3-3-3-3-3-|-3-3-3-3-3-3-3-3-|-3-3-3-3-3-3-3-3-|
G -4-4-4-4-4-4-4-4-|-4-4-4-4-4-4-4-4-|-4-4-4-4-4-4-4-4-|
D -5-5-5-5-5-5-5-5-|-4-4-4-4-4-4-4-4-|-4-4-4-4-4-4-4-4-|
A -5-5-5-5-5-5-5-5-|-2-2-2-2-2-2-2-2-|-2-2-2-2-2-2-2-2-|
E -3-3-3-3-3-3-3-3-|-----------------|-2-2-2-2-2-2-2-2-|
E -3-3-3-3-3-3-3-3-|-3-3-3-3-3-3-3-3-|-----------------|
B -3-3-3-3-3-3-3-3-|-3-3-3-3-3-3-3-3-|-7-7-7-7-7-7-7-7-|
G -4-4-4-4-4-4-4-4-|-4-4-4-4-4-4-4-4-|-7-7-7-7-7-7-7-7-|
D -5-5-5-5-5-5-5-5-|-5-5-5-5-5-5-5-5-|-7-7-7-7-7-7-7-7-|
A -5-5-5-5-5-5-5-5-|-5-5-5-5-5-5-5-5-|-5-5-5-5-5-5-5-5-|
E -3-3-3-3-3-3-3-3-|-3-3-3-3-3-3-3-3-|-----------------|
E -----------------|
B -7-7-7-7-7-7-7-7-|
G -7-7-7-7-7-7-7-7-|
D -5-5-5-5-5-5-5-5-|
A -5-5-5-5-5-5-5-5-|
E -----------------|
Riff A:
E -----------------|--------^-^--------|-----------------|--------^-^----------|
B -----------------|-------7-8-7-------|-----------------|-----7-7-8-7----7----|
G -----6-----6-7---|-6-7-9-------9-7-6-|---6-7---6-7-9-6-|-7-9---------10---10-|
D -6-9---6-9-----9-|-------------------|-9-----9---------|---------------------|
A -----------------|-------------------|-----------------|---------------------|
E -----------------|-------------------|-----------------|---------------------|
E -----------------|----------------|-----------------|--------^-^--------|
B -7-----------7-9-|-9-7----7-------|-----------------|-------7-8-7-------|
G ---7-------7-----|-----10---7-6-7-|-----6-----6-7---|-6-7-9-------9-7-6-|
D -----7---7-------|----------------|-8-9---8-9-----9-|-------------------|
A -------9---------|----------------|-----------------|-------------------|
E -----------------|----------------|-----------------|-------------------|
Riff B :
E -----------------|--------^-^--------|-----------------|
B -----------------|-------7-8-7-------|-----------------|
G -----6-----6-7---|-6-7-9-------9-7-6-|---6-7---6-7-9-7-|
D -8-9---8-9-----9-|-------------------|-9-----9---------|
A -----------------|-------------------|-----------------|
E -----------------|-------------------|-----------------|
E --------^-^----------|-----------------|----------------|-----------------|
B -----7-7-8-7----7----|-7-----------7-9-|-9-7----7-------|-----------------|
G -7-9---------10---10-|---7-------7-----|-----10---7-6-7-|-----6-----6-7---|
D ---------------------|-----7---7-------|----------------|-8-9---8-9-----9-|
A ---------------------|-------9---------|----------------|-----------------|
E ---------------------|-----------------|----------------|-----------------|
E --------^-^--------|-----------------|--------^-^----------|-----------------|
B -------7-8-7-------|-----------------|-----7-7-8-7----7----|-7-----------7-9-|
G -6-7-9-------9-7-6-|---6-7---6-7-9-6-|-7-9---------10---10-|---7-------7-----|
D -------------------|-9-----9---------|---------------------|-----7---7-------|
A -------------------|-----------------|---------------------|-------9---------|
E -------------------|-----------------|---------------------|-----------------|
E ----------------|-----------------|--------^-^--------|-----------------|
B -9-7----7-------|-----------------|-------7-8-7-------|-----------------|
G -----10---7-6-7-|-----6-----6-7---|-6-7-9-------9-7-6-|---6-7---6-7-9-6-|
D ----------------|-8-9---8-9-----9-|-------------------|-9-----9---------|
A ----------------|-----------------|-------------------|-----------------|
E ----------------|-----------------|-------------------|-----------------|
E --------^-^----------|-----------------|----------------|
B -----7-7-8-7----7----|-7-----------7-9-|-9-7----7-------|
G -7-9---------10---10-|---7-------7-----|-----10---7-6-7-|
D ---------------------|-----7---7-------|----------------|
A ---------------------|-------9---------|----------------|
E ---------------------|-----------------|----------------|
E -----------------|--------^-^--------|-----||
B -----------------|-------7-8-7-------|-----||
G -----6-----6-7---|-6-7-9-------9-7-6-|-----||
D -8-9---8-9-----9-|-------------------|-9---||
A -----------------|-------------------|-----||
E -----------------|-------------------|-----||
Intro
verse
chorus
riff A
verse
chorus
riff B
I've exposed your lies, baby
The underneaths no big surprise
Now it's time for changing
And cleansing everything
To forget your love
My plug in baby
Crucifies my enemies
When I'm tired of giving wo
My plug in baby
In unbroken virgin realities
Is tired of living oooh
Don't confuse
Baby you're gonna lose
Your own game
Change me
And replace the envying
To forget your love
My plug in baby
Crucifies my enemies
When I'm tired of giving
My plug in baby
In unbroken virgin realities
And tired of living
And i have seen your loving
Mine is gone
And I have been in trouble
Whooowhooooowhaaaaa




Ваше мнение



Капча