This is one of Muse best songs and worth learning.
THIS SONG IS IN DROPPED-D TUNING!!!
The intro and first verse of this are actually played by a keyboard.

e-7-------7-------7-------7-------7-------7-------7-------7-------
b---8---8---8---8---7---7---7---7---8---8---8---8---7---7---7---7-
g-----9-------9-------8-------8-------9-------9-------8-------8---
d-----------------------------------------------------------------
a-----------------------------------------------------------------
e-----------------------------------------------------------------

e-7-------7-------8-------8-------7-------7-------7-------7-------
b---8---8---8---8---8---8---8---8---8---8---8---8---7---7---7---7-
g-----9-------9-------9-------9-------7-------7-------8-------8---
d-----------------------------------------------------------------
a-----------------------------------------------------------------
e-----------------------------------------------------------------

Heavy distortion for the 1st riff.

e----------------------------------------------------------------------
b----------------------------------------------------------------------
g----------------------------------------------------------------------
d-2-2-2-2-5-2-5-6-7-7-7-7-10-7-10-11-12-0-0-12-0-0-3-4-5-5-5-5-9-9-9-9-
a-2-2-2-2-5-2-5-6-7-7-7-7-10-7-10-11-12-0-0-12-0-0-3-4-5-5-5-5-9-9-9-9-
e-2-2-2-2-5-2-5-6-7-7-7-7-10-7-10-11-12-0-0-12-0-0-3-4-5-5-5-5-9-9-9-9-

e-------------------------------------------------------------------------
b-------------------------------------------------------------------------
g-------------------------------------------------------------------------
d-10-10-10-10-10-10-10-10-8-8-8-8-8-8-8-8-9-9-9-9-9-9-9-9-9-9-9-9-9-9-9-9-
a-10-10-10-10-10-10-10-10-8-8-8-8-8-8-8-8-9-9-9-9-9-9-9-9-9-9-9-9-9-9-9-9-
e-10-10-10-10-10-10-10-10-8-8-8-8-8-8-8-8-9-9-9-9-9-9-9-9-9-9-9-9-9-9-9-9-

After this there is a lot of bass guitar, but I think Matt is playing this.
To get the rythym listen to the song.

e-7-7-7-7-7-8-7-7---
b-8-7-8-7-8-8-8-7---
g-9-8-9-8-9-9-7-8---
d-------------------
a-------------------
e-------------------

Heavy distortion for:
'Destroy the spineless...'(Again listen to the song for the rythym)

e------------------
b------------------
g------------------
d-2-10-12-5-10-8-9-
a-2-10-12-5-10-8-9-
e-2-10-12-5-10-8-9-
Repeat this. Then Matt plays a solo with some kind of effect on it, this is what he plays.

e-7-------7-------7-------7-------7-------8-------7---------7------
b---8---8---7---7---8---8---7---7---8-------8-------8-----7--------
g-----9-------8-------9-------8-------9-------9-------7-8----------
d---------------------------------------10------10-----------------
a------------------------------------------------------------------
e------------------------------------------------------------------

e-7-------7-------7-------7-------7-------8-----8-7----------------
b---8---8---7---7---8---8---7---7---8-------8-------8--------------
g-----9-------8-------9-------8-------9-------9-------7-8----------
d---------------------------------------10-------------------------
a------------------------------------------------------------------
e------------------------------------------------------------------

That is all there is to the song, to get where to play them, listen to the song. It is brilliant!

Lyrics
Link it to the world,
Link it to yourself.
Stretch it like a birth squeeze.
The love for what you hide,
The bitterness inside.
Is growing like the newborn.
When you've seen, seen,
too much, too young, young,
Soulless is everywhere.

Hopeless time to roam,
The distance to your home.
Fades away to nowhere.
How much are you worth,
You can't come down to earth.
Your swelling up-your unstoppable.
Cause you've seen, seen,
Too much, too young, young.
Soulless is everywhere.

Destroy the spineless,
Show me it's real.
Wasting our last chance,
to come away.
Just break the silence,
Cause I'm drifting away,
Away from you.

Yeah, link it to the world,
Link it to yourself.
Stretch it like it's a birth squeeze.
The love for what you hide,
The bitterness inside.
Is growing like the newborn.
When you've seen, seen,
Too much, too young, young.
Soulless is everywhere.

IF YOU THINK YOU KNOW BETTER THAN ME, THEN E-MAIL ME AT [email protected] !!!!!LEARN THIS SONG!!!!!




Ваше мнение



Капча