Band: Muse
Song: Nature_1
Album: Hullabaloo
Instrument: Bass

Riff 1

G:-------------------------------------]
D:-------------------------------------]
A:--2-22----222----3-33----333---------]
E:-------------------------------------]

Riff 2

G:-------------------------------------------------------------------]
D:-------------------------------------------------------------------]
A:-------------------------------------------------------------------]
E:--22---22---22---22---2---2----33---33---33---33---3---3-----------]

Riff 3

G:---------------------------]
D:---------------------------]
A:---------------------------]
E:--22----22----33----22-----]

I think this bit is right don’t shout at me if it isn’t!

Riff 4

G:----------------------------------]
D:----------------------------------]
A:------8b---------------7b---------]
E:--99-----9-10----88----------8-9--]

Riff 5

G:-------------------------------]
D:-------------------------------]
A:-------------------------------]
E:--22---22---22---22-------2-2--]

I think that was easy it should be easy for you to, make sure you listen to the song!
You can put all that times things in this is my third tab! Along with Air L’ a Femme
D’ argent and One Minute Silence Rise and sine MUSE rule!




Ваше мнение



Капча