Album: Showbiz
------------------------------------------------------------------------------
-10-10-10-10-10-10-10-10--14-14-14-12-12-12-10-10-10-10-10-10---9--9--9--9----
-11-11-11-11-11-11-11-11--11-11-11-11-11-11-11-11-11-11-11-11--10-10-10-10----
------------------------------------------------------------------------------
------------------------------------------------------------------------------
------------------------------------------------------------------------------

------------------------------------------------------------------------------
-12-12-12-10-10-10--9--9--9--9--9--9--10-10-10-10--14-14-14-14-14-14-14-14----
-10-10-10-10-10-10-10-10-10-10-10-10--11-11-11-11--11-11-11-15-15-15-15-15----
------------------------------------------------------------------------------
------------------------------------------------------------------------------
------------------------------------------------------------------------------

------------------------------------------------------------------------------
-15-15-15-15-15-15-15-15-15---------------------------------------------------
-16-16-16-16-16-16-16-16-16---------------------------------------------------
------------------------------------------------------------------------------
------------------------------------------------------------------------------
------------------------------------------------------------------------------
------------------------------------------------------------------------------
-10-10-10-10-10-10-10-10--14-14-14-12-12-12-10-10-10-10-10-10---9--9--9--9----
-11-11-11-11-11-11-11-11--11-11-11-11-11-11-11-11-11-11-11-11--10-10-10-10----
------------------------------------------------------------------------------
------------------------------------------------------------------------------
------------------------------------------------------------------------------

------------------------------------------------------------------------------
-12-12-12-10-10-10--9--9--9--9--9--9--10-10-10-10--14-14-14-14-14-14-14-14----
-10-10-10-10-10-10-10-10-10-10-10-10--11-11-11-11--11-11-11-15-15-15-15-15----
------------------------------------------------------------------------------
------------------------------------------------------------------------------
------------------------------------------------------------------------------

------------------------------------------------------------------------------
-15-15-15-15-15-15-15-15-15---------------------------------------------------
-16-16-16-16-16-16-16-16-16---------------------------------------------------
------------------------------------------------------------------------------
------------------------------------------------------------------------------
------------------------------------------------------------------------------
She had something to confess to
But you don’t have the time so look the other way
You will wait until its over
To reveal what you’ve never shown her
Too little much to late
------------------------------------------------------------------------------
------------------------------------------------------------------------------
-----2-2-----2-2-----2-2-----2-2-1-1-----1-1-----1-1----1-1-------------------
-4-4-----4-4-----4-4-----4-4---------3-3-----3-3-----3-3----3-3---------------
------------------------------------------------------------------------------
------------------------------------------------------------------------------

------------------------------------------------------------------------------
------------------------------------------------------------------------------
-6-6-7-7---------6-6-7-7------------------------------------------------------
---------9-9-4-4---------9-9-4-4----------------------------------------------
------------------------------------------------------------------------------
------------------------------------------------------------------------------

------------------------------------------------------------------------------
------------------------------------------------------------------------------
-----2-2-----2-2-----2-2-----2-2-1-1-----1-1-----1-1----1-1-------------------
-4-4-----4-4-----4-4-----4-4---------3-3-----3-3-----3-3----3-3---------------
------------------------------------------------------------------------------
------------------------------------------------------------------------------

------------------------------------------------------------------------------
------------------------------------------------------------------------------
-6-6-7-7---------6-6-7-7------------------------------------------------------
---------9-9-4-4---------9-9-4-4----------------------------------------------
------------------------------------------------------------------------------
------------------------------------------------------------------------------

Too long trying to resist it
You’ve just gone and missed it
It´s escaped your world
-2-2-2-5-2--2--5-2--2--------------4-4-4--4-1---1---4-1---1-------------------
-2-2-2----2--2----2---2------------6-6-6------2---2-----2---------------------
-2-2-2-----------------------------6-6-6--------------------------------------
-4-4-4-----------------------------6-6-6--------------------------------------
-4-4-4-----------------------------4-4-4--------------------------------------
-2-2-2-----------------------------4-4-4--------------------------------------

-5-5-5-5-5-5-5-5-5-5-5-5-5-5-5-5-5-5-5-5-5-5-5-5-5-5-5-5-5-5-5-5--------------
-7-7-7-7-7-7-7-7-7-7-7-7-7-7-7-7-7-7-7-7-7-7-7-7-7-7-7-7-7-7-7-7--------------
-7-7-7-7-7-7-7-7-7-7-7-7-7-7-7-7-7-7-7-7-7-7-7-7-7-7-7-7-7-7-7-7--------------
-7-7-7-7-7-7-7-7-7-7-7-7-7-7-7-7-7-7-7-7-7-7-7-7-7-7-7-7-7-7-7-7--------------
-5-5-5-5-5-5-5-5-5-5-5-5-5-5-5-5-5-5-5-5-5-5-5-5-5-5-5-5-5-5-5-5--------------
------------------------------------------------------------------------------

Can you feel that I have needed...........
------------------------------------------------------------------------------
----2-------2-------6-------6-------2-------2-------3---3-2-------------------
---2--2---2---2---6---6---6---6---2---2---2---2---4---4-----4-----------------
--------------------------------------------------------------4---------------
----------------4-------4-----------------------2-----------------------------
-2------2-----------------------2-------2-------------------------------------
------------------------------------------------------------------------------
----2-------2-------6-------6-------2-------2-------3---3-2-------------------
---2--2---2---2---6---6---6---6---2---2---2---2---4---4-----4-----------------
--------------------------------------------------------------4---------------
----------------4-------4-----------------------2-----------------------------
-2------2-----------------------2-------2-------------------------------------


I’ll do it on my own
-0-0-0-0-0-0-0-0--4-4-4-4-4-4-4-4|-2------------------------------------------
-0-0-0-0-0-0-0-0--6-6-6-6-6-6-6-6|-2------------------------------------------
-1-1-1-1-1-1-1-1--6-6-6-6-6-6-6-6|-2------------------------------------------
-2-2-2-2-2-2-2-2--6-6-6-6-6-6-6-6|-4------------------------------------------
-2-2-2-2-2-2-2-2--4-4-4-4-4-4-4-4|-4------------------------------------------
-0-0-0-0-0-0-0-0--4-4-4-4-4-4-4-4|-2------------------------------------------

------------------------------------------------------------------------------
-10-10-10-10-10-10-10-10--14-14-14-12-12-12-10-10-10-10-10-10---9--9--9--9----
-11-11-11-11-11-11-11-11--11-11-11-11-11-11-11-11-11-11-11-11--10-10-10-10----
------------------------------------------------------------------------------
------------------------------------------------------------------------------
------------------------------------------------------------------------------

------------------------------------------------------------------------------
-12-12-12-10-10-10--9--9--9--9--9--9--10-10-10-10--14-14-14-14-14-14-14-14----
-10-10-10-10-10-10-10-10-10-10-10-10--11-11-11-11--11-11-11-15-15-15-15-15----
------------------------------------------------------------------------------
------------------------------------------------------------------------------
------------------------------------------------------------------------------

------------------------------------------------------------------------------
-15-15-15-15-15-15-15-15-15---------------------------------------------------
-16-16-16-16-16-16-16-16-16---------------------------------------------------
------------------------------------------------------------------------------
------------------------------------------------------------------------------
------------------------------------------------------------------------------
Too long trying to resist it
You’ve just gone and missed it
It´s escaped your world
------------------------------------------------------------------------------
-----2-2-----2-2-----2-2-----2-2-1-1-----1-1-----1-1----1-1-------------------
-4-4-----4-4-----4-4-----4-4---------3-3-----3-3-----3-3----3-3---------------
------------------------------------------------------------------------------
------------------------------------------------------------------------------

------------------------------------------------------------------------------
------------------------------------------------------------------------------
-6-6-7-7---------6-6-7-7------------------------------------------------------
---------9-9-4-4---------9-9-4-4----------------------------------------------
------------------------------------------------------------------------------
------------------------------------------------------------------------------

-2-2-2-5-2--2--5-2--2--------------4-4-4--4-1---------------------------------
-2-2-2----2--2----2---2------------6-6-6------2---6/7/6--2--------------------
-2-2-2-----------------------------6-6-6--------------------------------------
-4-4-4-----------------------------6-6-6--------------------------------------
-4-4-4-----------------------------4-4-4--------------------------------------
-2-2-2-----------------------------4-4-4--------------------------------------

-5-5-5-5-5-5-5-5-5-5-5-5-5-5-5-5-5-5-5-5-5-5-5-5-5-5-5-5-5-5-5-5--------------
-7-7-7-7-7-7-7-7-7-7-7-7-7-7-7-7-7-7-7-7-7-7-7-7-7-7-7-7-7-7-7-7--------------
-7-7-7-7-7-7-7-7-7-7-7-7-7-7-7-7-7-7-7-7-7-7-7-7-7-7-7-7-7-7-7-7--------------
-7-7-7-7-7-7-7-7-7-7-7-7-7-7-7-7-7-7-7-7-7-7-7-7-7-7-7-7-7-7-7-7--------------
-5-5-5-5-5-5-5-5-5-5-5-5-5-5-5-5-5-5-5-5-5-5-5-5-5-5-5-5-5-5-5-5--------------
------------------------------------------------------------------------------
Can you feel that I have needed
------------------------------------------------------------------------------
----2-------2-------6-------6-------2-------2-------3---3-2-------------------
---2--2---2---2---6---6---6---6---2---2---2---2---4---4-----4-----------------
--------------------------------------------------------------4---------------
----------------4-------4-----------------------2-----------------------------
-2------2-----------------------2-------2-------------------------------------
------------------------------------------------------------------------------
----2-------2-------6-------6-------2-------2-------3---3-2-------------------
---2--2---2---2---6---6---6---6---2---2---2---2---4---4-----4-----------------
--------------------------------------------------------------4---------------
----------------4-------4-----------------------2-----------------------------
-2------2-----------------------2-------2-------------------------------------

Solos.......




Ваше мнение



Капча