Make sure the low E is tuned down to D
Intro and Verse
e--------------10----------------
B--------10-------10----10-------
G-----10----10-------10---------- x 9
D--12----------------------------
A--------------------------------
D--------------------------------
e--------------10-------------------10----------10----------10--------------
B--------11-------11----11-------10----------10----------11----11----11-----
G-----12----12-------12-------10----------11----------12----------12--------
D--14----------------------12----------12----------12-----------------------
A---------------------------------------------------------------------------
D---------------------------------------------------------------------------
e--------------10----------------------10----------------------10-----------
B--------11-------11----11-------10-------10----10-------10-------10----10--
G-----12----12-------12-------10----10-------10-------10----10-------10-----
D--12----------------------12----------------------12-----------------------
A---------------------------------------------------------------------------
D---------------------------------------------------------------------------
e--------------12----------------------12----------------------10-----------
B--------10-------10----10-------10-------10----12-------10-------10----10--
G-----12----12-------12-------12----12-------12-------10----10-------10-----
D--11----------------------11----------------------12-----------------------
A---------------------------------------------------------------------------
D---------------------------------------------------------------------------
REPEAT THIS PATTERN THROUGH VERSE
hands are red with your blame
megaphone screaming my name
whimpers someone I should´ve loved
souls weeping above
Chorus
Gm D Gm Gm D Gm
I´ve seeeeeeen what you´re doing to me
D Gm G#m7
destroying puppet strings
A
to our souls
VERSE
micro waves me insane
a blane cuts in your brain
sounds like forks on a plate
blackboard scratched with hate
CHORUS
I´ve seen what you´re doing to me
destroying puppet strings
to our souls
SOLO
e---------------------------------------------------------------------------
B---------------------------------------------------------------------------
G- 10----9-----7-----6-----4-----6-----7-----9---10---11---12----10----9----
D--x-----x-----x-----x-----x-----x-----x-----x---x----x-----x----x-----x----
A--8-----7-----5-----4-----2-----4-----5-----7---8----9----10----8-----7----
D---------------------------------------------------------------------------
e----------------------------------------------------------------
B----------------------------------------------------------------
G--10---9----7----6----------------------------------------------
D--x----x----x----x----------------------------------------------Repeat this riff
A--8----7----5----4--|---5--4--3--0---------------------------0-----3--4-----til the end
D-------------------------6--5--3--0--3--0--5--7-----0-----------




Ваше мнение



Капча