Muse-In Your World
Any comments, questions or queries then mail me at [email protected]

Intro
e|---------------------------------------------|
B|---------------------------------------------|
G|----7--------------------------------7-------|
D|--7---10-9-7-6-7-9--(X3)--7-6-7-9-10---10-9--|
A|---------------------------------------------|
E|---------------------------------------------|

e|---------------------------------------------|
B|---------------------------------------------|
G|----7--------------------------------7-------|
D|--7---10-9-7-6-7-9--(X3)--7-6-7-9-10---10-9--|
A|---------------------------------------------|
E|---------------------------------------------|

Verse (not too sure about this part)
e|-------------------------------------------------------------|
B|-------------------------------------------------------------|
G|-------------------------------------------------------------|
D|----------------------------9-10------------7-9--------------|
A|-------------5-7-8-8-8-8-8-8----5-5-5-5-5-5-----7-7-7-7-7-7--|
E|--5-5-5-5-5-5------------------------------------------------|

e|------------------------------------------------------------|
B|------------------------------------------------------------|
G|------------------------------------------------------------|
D|--9-10-7-7-7-7-7-7-----------------9-10------------7-9------|
A|-------------------5-7-8-8-8-8-8-8-----5-5-5-5-5-5-----7-7--|
E|------------------------------------------------------------|

e|------------------------------------------------------------|
B|------------------------------------------------------------|
G|---------------5-5-5-5--7-7-7-7--9-9-9-9--10-10-10-10--9-9--|
D|--7-7-7-7-7-7--5-5-5-5--7-7-7-7--9-9-9-9--10-10-10-10--9-9--|
A|---------------3-3-3-3--5-5-5-5--7-7-7-7--8--8--8--8---7-7--|
E|------------------------------------------------------------|

e|-------------------------|
B|-------------------------|
G|--9-9-9-9-9-9-9-9-9-9-9--|
D|--9-9-9-9-9-9-9-9-9-9-9--|
A|--7-7-7-7-7-7-7-7-7-7-7--|
E|-------------------------|

Chorus
e|------------------------------------------|
B|------------------------------------------|
G|--------------10-10-X--------------9-9-X--|
D|--10-10-10-X--10-10-X--10-10-10-X--9-9-X--|
A|--10-10-10-X--8--8--X--10-10-10-X--7-7-X--|
E|--8--8--8--X-----------8--8--8--X---------|

e|----------------------------------|
B|----------------------------------|
G|-----------9-9-------------10-10--|
D|--7-7-7-X--9-9-X--7-7-7-X--10-10--|
A|--7-7-7-X--7-7-X--7-7-7-X--8--8---|
E|--5-5-5-X------X--5-5-5-X---------|

Outro
e|---------------------------------------------------------------------|
B|---------------------------------------------------------------------|
G|--------------------7-----7-9-10-9-10-12-10---9----------------------|
D|--7-6-7-9-10-7-9-10--9-10------------------12---12-10-9-10-12-10-9-7-|
A|---------------------------------------------------------------------|
E|---------------------------------------------------------------------|




Ваше мнение



Капча