Standard Tuning
This is the whole song, including fill ins (there aren't many though).
Intro/Interlude/Chorus
G|--------------------------------------------------------------|
D|-------------------------------------------------777777-------|
A|-121212121212101010101010999999888888777777777777------777777-|
E|--------------------------------------------------------------|
Verse 1
G|------------------------------------------------------------------|
D|------------------------------------------------------------------|
A|-----------------7-55555--------------------------5-7777775757777-|
E|-3-55555-7-88888---------0-11111--3-55555-7-88888-----------------|
G|---------------------------------------------------|
D|---------------------------------------------------|
A|-----------------7-55555---------------------------|
E|-3-55555-7-88888---------0-11111-3-55555-5-00000-0-| at this point it goes
straight to the Intro thingy
Verse 2 (pretty much the same except for the fill in)
G|--------------------------------------------------------------------|
D|---------------------------------------------------------------5----|
A|-----------------7-55555--------------------------5-77777757577-75--|
E|-3-55555-7-88888---------0-11111--3-55555-7-88888-----------------7-|
G|-------------------------------------------------|
D|-------------------------------------------------|
A|---------------7-55555---------------------------|
E|-55555-7-88888---------0-11111-3-55555-5-00000-0-| at this point it goes
straight to the Intro thingy
Verse 3 (no fill ins)
G|----------------------------------------------------------------|
D|----------------------------------------------------------------|
A|-----------------7-55555--------------------------5-77777777777-|
E|-3-55555-7-88888---------0-11111--3-55555-7-88888---------------|
G|-----------------------------------------------------|
D|-----------------------------------------------------|
A|-----------------7-55555-----------------------------|
E|-3-55555-7-88888---------0-11111-3-55555-5-00000-0-5-|
Rest
Intro x1
Verse x1
Interlude x1
Verse 2 x1
Interlude x1
Rest
Verse 3 x1
Rest




Ваше мнение



Капча