this song rocks bu
Electric guitar
Intro:
-|------------------------|------------------------|------------------------|-
-|------------2-----------|------------3-----------|------------3-----------|-
-|--------2-------2-------|--------0-------0-------|--------2-------2-------|-
-|----2---------------2---|----0---------------0---|----0---------------0---|-
-|0-----------------------|------------------------|------------------------|-
-|------------------------|3-----------------------|2-----------------------|-
A G D/F#
-|------------------------|------------------------|------------------------|-
-|------------3-----------|------------2-----------|------------3-----------|-
-|--------2-------2-------|--------2-------2-------|--------0-------0-------|-
-|----0---------------0---|----2---------------2---|----0---------------0---|-
-|------------------------|0-----------------------|------------------------|-
-|2-----------------------|------------------------|3-----------------------|-
D/F# A G
-|------------3-----------|------------3-----------|-
-|--------2-------2-------|--------2-------2-------|-
-|----3---------------3---|----3---------------3---|-
-|0-----------------------|0-----------------------|-
-|------------------------|------------------------|-
-|------------------------|------------------------|-
1st Verse:
-|------------------------|------------------------|------------------------|-
-|------------2-----------|------------3-----------|------------2-----------|-
-|--------2-------2-------|--------0-------0-------|--------3-------3-------|-
-|----2---------------2---|----0---------------0---|----0---------------0---|-
-|0-----------------------|------------------------|------------------------|-
-|------------------------|3-----------------------|2-----------------------|-
A G D/F#
-|------------------------|------------------------|------------------------|-
-|------------2-----------|------------2-----------|------------3-----------|-
-|--------3---------3-----|--------2---------2-----|--------0-------0-------|-
-|----0-----------0---0---|----2-----------2---2p0-|----0---------------0---|-
-|------------------------|0-----------------------|------------------------|-
-|2-----------------------|------------------------|3-----------------------|-
D/F# A G
-|------------2-----------|------------2-----2---- |------------------------|-
-|--------3-------3-------|--------3-------3---3-- |------------2-----------|-
-|----2---------------2---|----2-----------------2 |--------2-------2-------|-
-|0-----------------------|0---------------------- |----2---------------2---|-
-|------------------------|----------------------- |0-----------------------|-
-|------------------------|----------------------- |------------------------|-
D A
-|3-------3---3-----------|------------------------|------------------------|-
-|------3---3-------------|--------3---3-----------|--------3---3-----------|-
-|----0-------------0-----|------2---2-------2-----|------2---2-------2-----|-
-|----------------0---0---|----0-----------0---0---|----0-----------0---0---|-
-|------------------------|------------------------|------------------------|-
-|3-----------------------|2-----------------------|2-----------------------|-
G D/F#
-|------------------------|------------3-----------|------------2-----------|-
-|--------2---2-----------|--------3-------3-------|--------3-------3-------|-
-|------2---2-------2-----|------0---0-------0-----|----2---------------2---|-
-|----2-----------2---2p0-|----0---------------0---|0-----------------------|-
-|0-----------------------|------------------------|------------------------|-
-|------------------------|3-----------------------|------------------------|-
A G D
-|3---3-3-3-3-3-3-3-3-3-3-|-
-|2---2-2-2-2-2-2-2-2-2-2-|-
-|3---3-3-3-3-3-3-3-3-3-3-|-
-|0---0-----0-----0-----0-|-
-|------------------------|-
-|------------------------|-
1st Chorus:
Em Bm F#
-|0---0-0-0-------------0-|2---2-2-2-------------2-|2---2-2-2-------------2-|-
-|0---0-0-0-------------0-|3---3-3-3-3---3---3---3-|2---2-2-2-------------2-|-
-|0---0-0-0-0---0---0---0-|4---4-4-4-4---4---4---4-|3---3-3-3-3---3---3---3-|-
-|2---2-2-2-2---2---2---2-|4---4-4-4-4---4---4---4-|4---4-4-4-4---4---4---4-|-
-|2---------2---2---2---2-|2---------2---2---2---2-|4---------4---4---4---4-|-
-|0---------0---0---0---0-|------------------------|2---------2---2---2---2-|-
Em Bm F#
-|0---0-0-0-----0---0---0-|2---2-2-2-------------2-|2-----------------------|-
-|0---0-0-0-----0---0---0-|2---2-2-2-------------2-|3-----------------------|-
-|0---0-0-0-0---0---0---0-|3---3-3-3-3---3---3---3-|4-----------------------|-
-|2---2-2-2-2---2---2---2-|4---4-4-4-4---4---4---4-|4-----------------------|-
-|2---------2---2---2---2-|4---------4---4---4---4-|2-----------------------|-
-|0---------0---0---0---0-|2---------2---2---2---2-|------------------------|-
2nd Verse:
-|------------------------|------------------------|--------2---2-----------|-
-|------------2-----------|--------3---3-----------|------3---3-------------|-
-|--------2-------2-------|------0---0-------0-----|----2-------------2-----|-
-|----2---------------2---|----0-----------0---0---|----------------0---0---|-
-|0-----------------------|------------------------|------------------------|-
-|------------------------|3-----------------------|2-----------------------|-
A G D/F#
-|------------------------|------------------------|------------------------|-
-|--------3---3-----------|--------2---2-----------|--------3---3-----------|-
-|------2---2-------2-----|------2---2-------2-----|------0---0-------0-----|-
-|----0-----------0---0---|----2-----------2---2p0-|----0-----------0---0---|-
-|------------------------|0-----------------------|------------------------|-
-|2-----------------------|------------------------|3-----------------------|-
D/F# A G
-|--------2---2-----------|------------2-----2-----|------------------------|-
-|------3---3---------3---|--------3-------3---3---|--------2---2-----------|-
-|----2-------------2---2-|----2-----------------2-|------2---2-------2-----|-
-|0-----------------------|0-----------------------|----2-----------2---2p0-|-
-|------------------------|------------------------|0-----------------------|-
-|------------------------|------------------------|------------------------|-
D A
-|------------------------|------------------------|------------------------|-
-|--------3---3-----------|--------3---3-----------|--------3---3-----------|-
-|------0---0-------0-----|------2---2-------2-----|------2---2-------2-----|-
-|----0-----------0---0---|----0-----------0---0---|----0-----------0---0---|-
-|------------------------|------------------------|------------------------|-
-|3-----------------------|2-----------------------|2-----------------------|-
G D/F#
-|------------------------|------------------------|------------2-----------|-
-|--------2---2-----------|--------3---3-----------|--------3-------3-------|-
-|------2---2-------2-----|------0---0-------0-----|----2---------------2---|-
-|----2-----------2---2p0-|----0-----------0---0---|0-----------------------|-
-|0-----------------------|------------------------|------------------------|-
-|------------------------|3-----------------------|------------------------|-
A G D
-|3---3-3-3-3-3-3-3-3-3-3-|-
-|2---2-2-2-2-2-2-2-2-2-2-|-
-|3---3-3-3-3-3-3-3-3-3-3-|-
-|0---0-----0-----0-----0-|-
-|------------------------|-
-|------------------------|-
2nd Chorus:
-|0---0-0-0-------------0-|2---2-2-2-------------2-|----------------------2-|-
-|0---0-0-0-------------0-|3---3-3-3-3---3---3---3-|0---0-0-0-0---0---2---2-|-
-|0---0-0-0-0---0---0---0-|4---4-4-4-4---4---4---4-|3---3-3-3-3---3---3---3-|-
-|2---2-2-2-2---2---2---2-|4---4-4-4-4---4---4---4-|4---4-4-4-4---4---4---4-|-
-|2---------2---2---2---2-|2---------2---2---2---2-|4---------4---4---4---4-|-
-|0---------0---0---0---0-|------------------------|------------------2---2-|-
Em Bm F#
-|0---0-0-0-----0---0---0-|2---2-2-2-------------2-|2---2-2-2-------------2-|-
-|0---0-0-0-----0---0---0-|2---2-2-2-------------2-|3---3-3-3-3---3---3---3-|-
-|0---0-0-0-0---0---0---0-|3---3-3-3-3---3---3---3-|4---4-4-4-4---4---4---4-|-
-|2---2-2-2-2---2---2---2-|4---4-4-4-4---4---4---4-|4---4-4-4-4---4---4---4-|-
-|2---------2---2---2---2-|4---------4---4---4---4-|2---------2---2---2---2-|-
-|0---------0---0---0---0-|2---------2---2---2---2-|------------------------|-
-|------------------------|------------------------|------------------------|-
-|--------------3---3---3-|----------3---3---3---3-|----------3---3---3-3-3-|-
-|4---4-4-4-4---4---4---4-|----4-4-4-4---4---4---4-|----0-0-0-0---0---0-0-0-|-
-|4---4-4-4-4---4---4---4-|----4-4-4-4---4---4---4-|0---0-0-0-0---0---0-0-0-|-
-|0---0-0-0-0---0---0---0-|------------------------|2---2-2-2-2---2---2-2-2-|-
-|------------------------|4-----------------------|3-------------3---3-3-3-|-
Bm/A Bm/Ab G
-|0---------0---0---0-0-0-|3-------------3---3-3-3-|0---------0---0---0-0-0-|-
-|0---------0---0---0-0-0-|3-------------3---3-3-3-|0---------0---0---0-0-0-|-
-|0---0-0-0-0---0---0-0-0-|0---0-0-0-0---0---0-0-0-|0---0-0-0-0---0---0-0-0-|-
-|2---2-2-2-2---2---2-2-2-|0---0-0-0-0---0---0-0-0-|2---2-2-2-2---2---2-2-2-|-
-|2---2-2-2-2---2---2-2-2-|2---2-2-2-2---2---2-2-2-|2---2-2-2-2---2---2-2-2-|-
-|0---------0---0---0-0-0-|3---------3---3---3-3-3-|0---------0---0---0-0-0-|-
Em G Em
-|2---------2---2---2---2-|-
-|2---------2---2---2---2-|-
-|3---3-3-3-3---3---3---3-|-
-|4---4-4-4-4---4---4---4-|-
-|4---4-4-4-4---4---4---4-|-
-|2---------2---2---2---2-|-
F#
Middle Section:
-|------------------------|------------------------|------------------------|-
-|------------3-----------|------------3-----------|------------0-----------|-
-|--------4-------4-------|------4---4-----4-------|------4---4-----4-------|-
-|----4---------------4---|----4---4-----------4---|----4---4-----------4---|-
-|2-----------------------|0-----------------------|------------------------|-
-|------------------------|------------------------|4-----------------------|-
Bm Bm/A Bm/Ab
-|------------------------|------------------------|------------3-----------|-
-|------------0-----------|------------0-----------|------------------------|-
-|------4---4---4---------|--------0-------0-------|--------0-------0-------|-
-|----4---4----------4----|----2---------------2---|----0---------------0---|-
-|------------------------|------------------------|------------------------|-
-|3-----------------------|0-----------------------|3-----------------------|-
Bm/G Em G
-|------------------------|------------------------|------------------------|-
-|------------0-----------|------------2-----------|------------3-----------|-
-|--------0-------0-------|--------3-------3-------|--------4-------4-------|-
-|----2---------------0---|----4---------------4---|----4---------------4---|-
-|------------------------|------------------------|2-----------------------|-
-|0-----------------------|2-----------------------|------------------------|-
Em F# Bm
-|------------------------|------------------------|------------------------|-
-|------------3-----------|------------3-----------|------------3-----------|-
-|--------4-------4-------|--------0-------0-------|--------2-------2-------|-
-|----4---------------4---|----0---------------0---|----0---------------0---|-
-|0-----------------------|------------------------|------------------------|-
-|------------------------|3-----------------------|2-----------------------|-
Bm/A G D/F#
-|------------------------|------------------------|------------2-----------|-
-|------------2-----------|------------3-----------|--------3-------3-----3-|-
-|--------2-------2-------|--------0-------0-------|----2---------------2---|-
-|----2---------------2---|----0---------------0---|0-----------------------|-
-|0-----------------------|------------------------|------------------------|-
-|------------------------|3-----------------------|------------------------|-
A G D
-|------------2-----------|-
-|--------3-------3-------|-
-|----2---------------2---|-
-|0-----------------------|-
-|------------------------|-
-|------------------------|-
Instrumental:
-|------------------------|------------------------|--------2---2-----------|-
-|------------2-----------|--------3---3-----------|------3---3-------------|-
-|--------2-------2-------|------0---0-------0-----|----2-------------2-----|-
-|----2---------------2---|----0-----------0---0---|----------------0---0---|-
-|0-----------------------|------------------------|------------------------|-
-|------------------------|3-----------------------|2-----------------------|-
A G D/F#
-|------------------------|------------------------|------------------------|-
-|--------3---3-----------|--------2---2-----------|--------3---3-----------|-
-|------2---2-------2-----|------2---2-------2-----|------0---0-------0-----|-
-|----0-----------0---0---|----2-----------2---2p0-|----0-----------0---0---|-
-|------------------------|0-----------------------|------------------------|-
-|2-----------------------|------------------------|3-----------------------|-
D/F# A G
-|--------2---2-----------|------------2-----2-----|------------------------|-
-|------3---3---------3---|--------3-------3---3---|--------2---2-----------|-
-|----2-------------2---2-|----2-----------------2-|------2---2-------2-----|-
-|0-----------------------|0-----------------------|----2-----------2---2p0-|-
-|------------------------|------------------------|0-----------------------|-
-|------------------------|------------------------|------------------------|-
D A
-|------------------------|------------------------|------------------------|-
-|--------3---3-----------|--------3---3-----------|--------3---3-----------|-
-|------0---0-------0-----|------2---2-------2-----|------2---2-------2-----|-
-|----0-----------0---0---|----0-----------0---0---|----0-----------0---0---|-
-|------------------------|------------------------|------------------------|-
-|3-----------------------|2-----------------------|2-----------------------|-
G D/F#
-|------------------------|------------------------|------------2-----------|-
-|--------2---2-----------|--------3---3-----------|--------3-------3-------|-
-|------2---2-------2-----|------0---0-------0-----|----2---------------2---|-
-|----2-----------2---2p0-|----0-----------0---0---|0-----------------------|-
-|0-----------------------|------------------------|------------------------|-
-|------------------------|3-----------------------|------------------------|-
A G D
-|3---3-3-3-3-3-3-3-3-3-3-|-
-|2---2-2-2-2-2-2-2-2-2-2-|-
-|3---3-3-3-3-3-3-3-3-3-3-|-
-|0---0-----0-----0-----0-|-
-|------------------------|-
-|------------------------|-
-|0---0-0-0-------------0-|2---2-2-2-------------2-|----------------------2-|-
-|0---0-0-0-------------0-|3---3-3-3-3---3---3---3-|0---0-0-0-0---0---2---2-|-
-|0---0-0-0-0---0---0---0-|4---4-4-4-4---4---4---4-|3---3-3-3-3---3---3---3-|-
-|2---2-2-2-2---2---2---2-|4---4-4-4-4---4---4---4-|4---4-4-4-4---4---4---4-|-
-|2---------2---2---2---2-|2---------2---2---2---2-|4---------4---4---4---4-|-
-|0---------0---0---0---0-|------------------------|------------------2---2-|-
A Bm F#
-|0---0-0-0-----0---------|2---2-2-2-------------2-|2---2-2-2-------------2-|-
-|0---0-0-0-----0---------|2---2-2-2-------------2-|3---3-3-3-3---3---3---3-|-
-|0---0-0-0-0---0---------|3---3-3-3-3---3---3---3-|4---4-4-4-4---4---4---4-|-
-|2---2-2-2-2---2---------|4---4-4-4-4---4---4---4-|4---4-4-4-4---4---4---4-|-
-|2---------2---2---2-2---|4---------4---4---4---4-|2---------2---2---2---2-|-
-|0---------0---0---0-0-1-|2---------2---2---2---2-|------------------------|-
-|------------------------|------------------------|------------------------|-
-|--------------3---3---3-|----------3---3---3---3-|----------3---3---3-3-3-|-
-|4---4-4-4-4---4---4---4-|----4-4-4-4---4---4---4-|----0-0-0-0---0---0-0-0-|-
-|4---4-4-4-4---4---4---4-|----4-4-4-4---4---4---4-|0---0-0-0-0---0---0-0-0-|-
-|0---0-0-0-0---0---0---0-|------------------------|2---2-2-2-2---2---2-2-2-|-
-|------------------------|4-----------------------|3-------------3---3-3-3-|-
Bm/A Bm/Ab G
-|0---------0---0---0-0-0-|3-------------3---3-3-3-|0---------0---0---0-0-0-|-
-|0---------0---0---0-0-0-|3-------------3---3-3-3-|0---------0---0---0-0-0-|-
-|0---0-0-0-0---0---0-0-0-|0---0-0-0-0---0---0-0-0-|0---0-0-0-0---0---0-0-0-|-
-|2---2-2-2-2---2---2-2-2-|0---0-0-0-0---0---0-0-0-|2---2-2-2-2---2---2-2-2-|-
-|2---2-2-2-2---2---2-2-2-|2---2-2-2-2---2---2-2-2-|2---2-2-2-2---2---2-2-2-|-
-|0---------0---0---0-0-0-|3---------3---3---3-3-3-|0---------0---0---0-0-0-|-
Em G Em
-|2---------2---2---2---2-|-
-|2---------2---2---2---2-|-
-|3---3-3-3-3---3---3---3-|-
-|4---4-4-4-4---4---4---4-|-
-|4---4-4-4-4---4---4---4-|-
-|2---------2---2---2---2-|-
F#
-|2---------2---2---2-2-2-|------------------------|------------------3-3-3-|-
-|3---3-3-3-3---3---3-3-3-|3---------3---3---3-3-3-|3---------3---3---3-3-3-|-
-|4---4-4-4-4---4---4-4-4-|4---4-4-4-4---4---4-4-4-|0---0-0-0-0---0---0-0-0-|-
-|4---4-4-4-4---4---4-4-4-|4---4-4-4-4---4---4-4-4-|0---0-0-0-0---0---0-0-0-|-
-|2---------2---2---2-2-2-|0---------0---0---0-0-0-|2---2-2-2-2---2---2-2-2-|-
-|------------------------|------------------------|3---------3---3---3-3-3-|-
Bm Bm/A G
-|------------------3-3-3-|0---------0---0---0---0-|------------------------|-
-|2---------2---2---2-2-2-|2---2-2-2-2---2---2---2-|3---------3---3---3---3-|-
-|3---3-3-3-3---3---3-3-3-|2---2-2-2-2---2---2---2-|0---0-0-0-0---0---0---0-|-
-|0---0-0-0-0---0---0-0-0-|2---2-2-2-2---2---2---2-|0---0-0-0-0---0---0---0-|-
-|0---0-0-0-0---0---0-0-0-|0---------0---0---0---0-|2---2-2-2-2---2---2---2-|-
-|2---------2---2---2-2-2-|------------------------|3---------3---3---3---3-|-
D/F# A G
-|2-----------2-----------|------------2-----------|-
-|3---------3-----3-------|--------3-------3-------|-
-|2-------2-----------2---|----2---------------2---|-
-|0-----0-----------------|0-----------------------|-
-|------------------------|------------------------|-
-|------------------------|------------------------|-
Ending:
-|------------------------|------------------------|------------------------|-
-|------------2-----------|------------3-----------|------------3-----------|-
-|--------2-------2-------|--------0-------0-------|--------2-------2-------|-
-|----2---------------2---|----0---------------0---|----0---------------0---|-
-|0-----------------------|------------------------|------------------------|-
-|------------------------|3-----------------------|2-----------------------|-
A G D/F#
-|------------------------|------------------------|------------------------|-
-|------------3-----------|------------2-----------|------------3-----------|-
-|--------2-------2-------|--------2-------2-------|--------0-------0-------|-
-|----0---------------0---|----2---------------2---|----0---------------0---|-
-|------------------------|0-----------------------|------------------------|-
-|2-----------------------|------------------------|3-----------------------|-
D/F# A G
-|------------3-----------|------------------------|-
-|--------2-------2-------|------------------------|-
-|----3---------------3---|3-----------------------|-
-|0-----------------------|0-----------------------|-
-|------------------------|------------------------|-
-|------------------------|------------------------|-
t then all songs by muse do so i would never did dem




Ваше мнение



Капча