FUTURISM
DEAD STAR E.P.
MUSE

KEY: ^ BEND

BASS INTRO/VERSE
G|-------12--------------------------------------------------|
D|-------------10----9h10----------12------------11----------|
A|-10-10----10----10-----------------------------------------|
E|--------------------------10-10-----10---9-9-------9-------|

G|-----------------------------------------------------------|DO LOTS
D|-------10-----------------------------------7--------------|OF
A|--------------9H10P9--8---------8------5--5-----5----------|TIMES
E|-8--8------8--------------6--6----6------------------------|

GUITAR INTRO
|--------------------------------10--------------------------------X-X-X-|
|--------------------------------10--------------------------------X-X-X-|
|--6--5--3-------5bend-----10---------8--7--5--------------7bend---X-X-X-|
|--------------5-------------------------------------6-------------X-X-X-|
|------------------------------------------------------------------X-X-X-|
|------------------------------------------------------------------X-X-X-|

VERSE

CHORUS not to sure about this
|--2----3----------2----3---------6-----3----|
|--3----3----------2----3---------6-----3----|
|--2----0----------3----0---------7-----4----|
|--0----0----------2----0---------8-----5----|
|--0----2----------4----2---------8-----5----|
|--2----3----------2----3---------6-----3----|

SOLO
|----------------------------------------------------------------------|
|-------------------------8-----------8------------8---------8---------|
|----------------------------8--7--8----8--7--8-----7--5--7----7--5--7-|X2
|-5--7^--7^---7--9^--9^------------------------------------------------|
|----------------------------------------------------------------------|
|----------------------------------------------------------------------|

(TREMELO PICK THIS PART)
|----17^--17^--17^--17^--------------------------------------------------|
|-----------------------------10^--10^--10^--10^--10---------------------|
|---------------------------------------------------------8-----------12-|
|------------------------------------------------------------------------|
|------------------------------------------------------------------------|
|------------------------------------------------------------------------|




Ваше мнение



Капча