Im about 97% sure that this tab is right. I think it has some effects over the top
in some places that i wasn't able to put down but you'll have to work around
that (sowwwy.)

Forced In
Hullabaloo
^=bend
Just before this are some effects(liht feedback i think) just ignore it.

E------------------|
B------------------|
G--4--------4^/2---|
D------------------|
A------------------|
E------------------|

Use a whammy bar on the G string(2)
Verse

E-------------------|R
B-------------------|E
G-----2-------2-----|A
D-------------------|P
A---3-------4-------|E
E-1-------2---------|T

Chorus
E----------------------------------------|R
B----------------------------------------|E
G---4-----4-----4------4-----4-----4-----|A
D-----2-----2------------0-----0---------|P
A-0-----0-----0--------------------------|E
E--------------------3-----3-----3-------|T

DONT FORGET ABOUT THE WHAMMY BAR!
E------------------|
B------------------|
G-----2-------2----|
D------------------|
A---3-------4------|
E-1-------2--------|

End verses
E--------------------|
B-------0------------|
G-----5---------5----|
D--------------------|
A---7---------6------|
E-5---------4--------|

E--------------------|
B-------0------------|
G-----5---------5----|
D--------------------|
A---7---------6------|
E-5---------4--------|

E--------------------|
B-------0------------|
G-----5---------5----|
D--------------------|
A---7---------6------|
E-5---------4--------|

E--------------------|
B---------------0----|
G-----5--------------|
D-------0------------|
A---7---------6------|
E-5---------4--------|

E----------------------|
B---------0------------|
G-----4----------------|
D-------6---------7----|
A---7-----------6------|
E-5-----------4--------|

Then Matt does some tapping(i think) i'll do that later if i can but this is all
right. If you have any probs e-mail me at [email protected]




Ваше мнение



Капча