Deadstar intro
Tabbed By Peach
[email protected]
[email protected]---|
B-------------------------------------------------------------------|
G---7-----7-----7---------------------------------------------------|
E---x-----x-----x---------------------------------------------------|
A---5-----5-----5---------------------------------------------------|
D-----0-0---0-0---0-*2.75-*2.75-*2.75-------------------------------|
X2
*2.75 = Harmonics over around 2/3rd fret
e-------------------------------------------------------------------|
B-------------------------------------------------------------------|
G---7-----7-----7---------------------------------------------------|
E---x-----x-----x---------------------------------------------------|
A---5-----5-----5---------0-3-4-5-----------------------------------|
D-----0-0---0-0---0-3-4-5-------------------------------------------|
X2
If anyone has any more of this song please send it to me!!!




Ваше мнение



Капча