Muse - Darkshines
Tabbed By: sandruff
EMail: [email protected]
Chords used:
Dsus4 xx0233
Dm xx0231
A7 x02020
Gm 3x0333
Ddim xx0101
Bb 688766
^ = hammer on/pull off b = bend / = slide up/down
~ = trill
Intro:
e-------------------------------------------------------
b-------------------------------------------------------
g-------------------------------------------------------
d-----------------/-7--5--3--2^3^2----2-----------------
a-5-7---8---7-5~--------------------4---4--1^4^1^0^1^0--
E-------------------------------------------------------
e-------------------------------------------------------
b--------------------------------------14~~-------------
g--------------------6b---7^9-10--9--7/12~~-------------
d-/-7--5--7b----7--5------------------------------------
a-------------------------------------------------------
E-------------------------------------------------------
Verse 1:
Dsus4 Dm A7
Passing by you light up my darkest skies
Gm Ddim A7
You'll take only seconds to draw me in
Dsus4 Dm A7
So be mine
Gm Ddim A7
and you innocence I will consume
Chorus 1:
Dm A7
Darkshines bringing me down
Gm Bb
making my heart feel sore
A7
Cause it's good
Solo 1:(guitar synth)
e-------------------------------
b-10----10-8-6--5-6^5---5-------
g---------------------7---------
d-------------------------------
a-------------------------------
E-------------------------------
e------------------------------------
b-10-8-6-5---6^5--3---3-5-6--5--3--2-
g------------------------------------
d------------------------------------
a------------------------------------
E------------------------------------
Verse 2:
Dsus4 Dm A7
Hold your hands up to your eyes again
Gm Ddim A7
hide from the scary scenes suppress you fears
Dsus4 Dm A7
So be mine
Gm Ddim A7
and you innocence I will consume
Chorus 2:
Dm A7
Darkshines bringing me down
Gm Bb
making my heart feel sore
A7
Cause it's good
Dm A7
Darkshines bringing me down
Gm Bb
making my heart feel sore
A7
Cause it's good
Solo 2:(guitar synth)
e--------------------------------
b-/-11---/-11-10-8-6-------------
g--------------------7----------- x2
d----------------------7--7-6-7--
a--------------------------------
E--------------------------------
e-/-13-/-14-/-15-13^11-10-------------------------------
b------------------------------------------------10~~---
g-----------------------------4~~---7~~---10~~----------
d------------------------6~~----------------------------
a-------------------------------------------------------
E-------------------------------------------------------
(clean + reverb)
e-------------------------------------------------------
b-----5-------------------------------------------------
g---7------9b---7--9b--7----------9----9b--7--9b--7-----
d-8----------------------7--7-6-7-------------------7---
a-------------------------------------------------------
E-------------------------------------------------------
e-------------------------------------------------------
b-------------------------------------------------------
g-----------------------------------13----13--14--------
d---------7--8--11^12----12^14---15----15---------------
a-7^8-10------------------------------------------------
E-------------------------------------------------------
e-------------------------------------------------------
b-14^15^14-11-14-11^10---10^11-14^15^14-11--14-11^10----
g-------------------------------------------------------
d-------------------------------------------------------
a-------------------------------------------------------
E-------------------------------------------------------
e-------------------------------------------------------
b-10-10-/-8-/-6-/-5-/-3---------3-3^5^6^5---------------
g-------------------------------------------7----7------
d-------------------------------------------------------
a-------------------------------------------------------
E-------------------------------------------------------
Outro:
Dm A7
Darkshines bringing me down
Gm Bb
making my heart feel sore
A7
Cause it's good




Ваше мнение



Капча