Intro:
e|-----------------------------------------------
b|-----------------------------------------------
g|-----------------------------------------------
d|--------------7-5-3-2~3~2----2-----------------
a|----5~7-8-7-5--------------5---5-1~4~1-0-1~0---
e|-----------------------------------------------

e|--------------------------------------9^^^^^^^^-
b|---------------------------5-6-5------8^^^^^^^^-
g|-------------------7-----7-------7--------------
d|--------7-5-7-8--5------------------------------
a|------------------------------------------------
e|--2~5-------------------------------------------

Во время куплета играть примерно так:

Passing by you light up my darkest skies
e|-------3-----1~3~1-------1-------------0--------
b|-----3-------------------3-----------2----------
g|---2-------------------------------0------------ В оригинале так!
d|------------------------------------------------ но по аккордам
a|------------------------------------------------ тоже не плохо!
e|------------------------------------------------

Аккорды:
Dsus4 Dm A7 Gm Ddim
e|-3----1--0---3-----1-------- Чтобы точно понять как играть,
b|-3----3--2---3-----0-------- нужно прослушать песню не один раз!!!
g|-2----2--0---3-----1--------
d|-0----0--2---5-----0--------
a|-X-----------5--------------
e|-X-----------3--------------

Dsus4 Dm A7
Passing by you light up my darkest skies
Gm Ddim A7
You take only seconds to draw me in
Dsus4 Dm A7 Gm Dgim A7
So be mine and your innocence I will consume

Припев: Здесь лучше играть с баре!
Dm
Dark shines
A
Bringing me down
Gm B
Making my heart feel sore
A
Because it's good

Hold your hands up to your eyes again
Hide from the scary scenes, suppress your fears
So be mine and your innocence I will consume

Dark shines
Bringing me down
Making my heart feel sore
Because it's (??)
You're dark shines
Bringing me down
Making my heart feel sore
Because it's good

Dark shines
Bringing me down
Making my heart feel sore
Because it's good




Ваше мнение



Капча