Band - muse
Song - Coma
Album - B-side
Dropped-d tuning
Intro
-|----------------------------------------------------------------------------
-|----------7-----7--------------------------------------------17b19----------
-|-7--777---9b11--9b11r9-7----------------------------7--777------------------
-|-7--777-------------------9-9----9----------9-------7--777------------------
-|-5--555-----------------------11---11-10-10---10----5--555------------------
-|-0--000---------------------------------------------0--000------------------

-|--------------16-16-16-16-16-16-xx-15-15-15-15-15-15------------------------
-|-17b19r17-15--16-16-16-16-16-16-xx-15-15-15-15-15-15------------------------
-|----------------------------------------------------------------------------
-|----------------------------------------------------------------------------
-|----------------------------------------------------------------------------
-|----------------------------------------------------------------------------

Pre-verse (slowly, after 2 pre-verses)
-|-------------------------------------------------|--------------------------
-|----77----77----77----77----77----77----66----66-|-6b7----------------------
-|-77----77----66----66----55----55----55----55----|--------------------------
-|-------------------------------------------------|--------------------------
-|-------------------------------------------------|--------------------------
-|-------------------------------------------------|--------------------------
Verse (mute it with the right hand)
-|-------------------------------------------------
-|----77----77----77----77----77----77----66----66-
-|-77----77----66----66----55----55----55----55----
-|-------------------------------------------------
-|-------------------------------------------------
-|-------------------------------------------------

Chorus
-|-------------------------|--------------------------------------------------
-|-------------------------|----2---------------------------------------------
-|-------777---------------|----2---------------------------------------------
-|-5-55--777--4-44--7-777--|-5--2---------------------------------------------
-|-5-55--555--4-44--7-777--|-5--0---------------------------------------------
-|-5-55--000--4-44--7-777--|-5------------------------------------------------




Ваше мнение



Капча