Intro:
---------------|
--------5b6r5--|
7-7-7-7-------7|
|-6-6-6-6-6---|-6-6-6-6-6---|-6-6-6-6-6---|-6-6-6-6-6---|-6-6-6-6-6--------|
---------------|
---------------|
--------------------------|
5b6r5---5b6r5-----6-------|
------7-------7-7---7-----|
|-6-6-6-6-6---------|-6-6-6-6-6---------|-6-6-6-6-6-------5-7-|
--------------------------|
--------------------------|
------------------------------|
--6---------6---------6-------|
7---7-----7---7-----7---7-----|
|-6-6-6-6-6-------5-7-|-6-6-6-6-6-------5-7-|-6-6-6-6-6-------5-7-|
------------------------------|
------------------------------|
------------------13----------|
--6------------15----15-------|
7---7-----|-13-13-13-13-13----------12-14-|
|-6-6-6-6-6-------5-7---------------------|
------------------------------|
------------------------------|
--------13------------------13----------|
-----15----15------------------15-------|
|-13-13-13-13-13----------12-14-|-13-13----13-13----------12-14-|
--------------------|-------12-------12-------------|
----------------------------------------|
----------------------------------------|
--------13----------|
-----------15-------|
|-13-13----13-13----------12-14-|
|-------12-------12-------------|
--------------------|
--------------------|
Verse
---------------------------|
---------------------------|
---------------------------|
---------------------------|
|-12-----------------------------------|
|-10-----------------------------------|
Leave me alone... I´ll do it myself...
---------------------------|
---------------------------|
---------------------------|
|--------5-------5-|-------5--------5-|-------5--------5-|-------5-------5-|
---------------------------|
---------------------------|
When thers´s nothing...
------------------------------|
--6---------6---------6-------|
7---7-----7---7-----7---7-----|
|-6-6-6-6-6-------5-7-|-6-6-6-6-6-------5-7-|-6-6-6-6-6-------5-7-|
------------------------------|
------------------------------|
----------------|----------|
--6-------------|----------|
7---7-----------|----------|
|-6-6-6-6-6-------5-7-|-7---------------|----------|
----------|-5---------------|----------|
----------------|----------|
You can see it...
---------------------------|
---------------------------|
---------------------------|
|--------5-------5-|-------5--------5-|-------5--------5-|-------5-------5-|
---------------------------|
---------------------------|
So come in my
Chorus
|---------1-----|---------2-----|---------3-----|---------3-----|
|-----3-------3-|-----3-------3-|-----3-------3-|-----3-------3-|
|---2---2---2---|---2---2---2---|---3---3---3---|---3---3---3---|
|-0-------------|-0---------------------|
----------------|
--------|-3-------------|-3-------------|
Cave...
|---------1-----|---------2-----|---------3-----|---------3-----|
|-----3-------3-|-----3-------3-|-----3-------3-|-----3-------3-|
|---2---2---2---|---2---2---2---|---3---3---3---|---3---3---3---|
|-0-------------|-0---------------------|
----------------|
--------|-3-------------|-3-------------|
|---------1-----|---------2-----|---------3-----|---------3-----|
|-----3-------3-|-----3-------3-|-----3-------3-|-----3-------3-|
|---2---2---2---|---2---2---2---|---3---3---3---|---3---3---3---|
|-0-------------|-0---------------------|
----------------|
--------|-3-------------|-3-------------|
|---------1-----|---------2-----|---------3-----|---------3-----|
|-----3-------3-|-----3-------3-|-----3-------3-|-----3-------3-|
|---2---2---2---|---2---2---2---|---3---3---3---|---3---3---3---|
|-0-------------|-0---------------------|
----------------|
--------|-3-------------|-3-------------|
----------------------|
5b6-5b6-5b6---6-------|
------------7---7-----|
|-6-6-6-6-6-----|-6-6-6-6-6-----|-6-6-6-6-6-----|-6-6-6-6-6-------5-7-|
----------------------|
----------------------|
----------------------------13---------|
--6---------6------------------15------|
7---7-----7---7-----|-13-13----13-13----------12-14|
|-6-6-6-6-6-------5-7-|-6-6-6-6-6-------5-7-|-------12-------12------------|
---------------------------------------|
---------------------------------------|
--------13----------|
-----------15-------|
|-13-13----13-13----------12-14-|
|-------12-------12-------------|
--------------------|
--------------------|
Verse
---------------------------|
---------------------------|
---------------------------|
|-7------------------------------------|
|-5------------------------------------|
---------------------------|
Please hold your... So you´ll never...
---------------------------|
---------------------------|
---------------------------|
|--------5-------5-|-------5--------5-|-------5--------5-|-------5-------5-|
---------------------------|
---------------------------|
And don´t ever...
---------------------|
---------------------|
---------------------|
|----10--------5-6-|-7-7-10-7-----5-6-|-7-7-10-7-----5-6-|
|----8---7-6-7-3-4-|-5-5-8--5-6-7-3-4-|-5-5-8--5-6-7-3-4-|
|--------5-4-5-----|----------4-5-----|----------4-5-----|
-----------------|----------|----------|
-----------------|----------|----------|
|----------5h7-7-7-5h7-7-5h7-|----------|----------|
|-7-7-10-7-------------------|----------|----------|
|-5-5-8--5-------------------|----------|----------|
-----------------|----------|----------|
Leave me alone...
---------------------------|
---------------------------|
---------------------------|
|--------5-------5-|-------5--------5-|-------5--------5-|-------5-------5-|
---------------------------|
---------------------------|
So come in my
Chorus
|---------1-----|---------2-----|---------3-----|---------3-----|
|-----3-------3-|-----3-------3-|-----3-------3-|-----3-------3-|
|---2---2---2---|---2---2---2---|---3---3---3---|---3---3---3---|
|-0-------------|-0---------------------|
----------------|
--------|-3-------------|-3-------------|
Cave...
|---------1-----|---------2-----|---------3-----|---------3-----|
|-----3-------3-|-----3-------3-|-----3-------3-|-----3-------3-|
|---2---2---2---|---2---2---2---|---3---3---3---|---3---3---3---|
|-0-------------|-0---------------------|
----------------|
--------|-3-------------|-3-------------|
|---------1-----|---------2-----|---------3-----|---------3-----|
|-----3-------3-|-----3-------3-|-----3-------3-|-----3-------3-|
|---2---2---2---|---2---2---2---|---3---3---3---|---3---3---3---|
|-0-------------|-0---------------------|
----------------|
--------|-3-------------|-3-------------|
|---------1-----|---------2-----|---------3-----|---------3-----|
|-----3-------3-|-----3-------3-|-----3-------3-|-----3-------3-|
|---2---2---2---|---2---2---2---|---3---3---3---|---3---3---3---|
|-0-------------|-0---------------------|
----------------|
--------|-3-------------|-3-------------|
Interlude (wait a couple of bars)
The piano does the work here, so, relax.
|--------0-|-------1-------------------------------|
|----3-----|---3-----------------------------------|
|--2---2---|-2---2---------------------------------|
|----------|---------|---ho hum...-----------------------------|
|--------------------------------------|
|--------------------------------------|
Solo
---------------------------------------|
|-8b10-10r8-8-7------------------------------------|
----|-7-9p7-9p7-9b10-9b10-9b10-10-10r9-7-|-7-9b11-11r9-7-6-5-4-|
------------------------------7-7-7-7--|
---------------------------------------|
---------------------------------------|
--5------------------------------------|
----6-|-8b10-10r8-8-7------------------------------|
|-42/4-4-4-4---------|-7-9p7-9p7-9b10-9b10-9b10-10-10r9-7-----|
---------------------------------------|
---------------------------------------|
---------------------------------------|
| Second guitar comes in here. |
----------|--12-12b13-12b13-12b13-12b13-12b13r12-10|
---------------------------------------|
---------------------------------------|
---------------------------------------|
---------------------------------------|
---------------------------------------|
------------------|
------------------|
|-7-9b11-11r9-7-6-5-4-|-4-4-4-4-4-4-4-4/7-|
-7-7-7-7----------|
------------------|
------------------|




Ваше мнение



Капча