Live Guitar version
Intro
Chords:Cm,Bb,Fm
Cm
e----------11------15--11--------------------
B------13------13----------13----------------
G--12--------------------------12------------
D--------------------------------------------
A--------------------------------------------
E--------------------------------------------
Bb
e----------10------13--10--------------------
B------11------11----------11----------------
G--10--------------------------10------------
D--------------------------------------------
A--------------------------------------------
E--------------------------------------------
Fm
e-----------8------13---8--------------------
B-------9------9------------9----------------
G--10--------------------------10------------
D--------------------------------------------
A--------------------------------------------
E--------------------------------------------
Cm
e----------15------15--11--------------------
B------13------13----------13----------------
G--12--------------------------12------------
D--------------------------------------------
A--------------------------------------------
E--------------------------------------------
Bb
e----------10------13--10--------------------
B------11------11----------11----------------
G--10--------------------------10------------
D--------------------------------------------
A--------------------------------------------
E--------------------------------------------
Fm
e-----------8------13---8--------------------
B-------9------9------------9----------------
G--10--------------------------10------------
D--------------------------------------------
A--------------------------------------------
E--------------------------------------------
Cm
e----------15------15--11------11------------
B------13------13----------13----------------
G--12---------------------------------------- x2
D--------------------------------------------
A--------------------------------------------
E--------------------------------------------
REPEAT THIS PATTERN FOR VERSE
Chorus
C Am G
peace and joy in your mind
C Am E
i want the peace and the joy in your mind
C Am G
give me peace and joy in your mind
C Am E
i want the peace and the joy in your mind
Then play the chords of the verse but not the riff once:
Cm, Bb, Fm, Cm, Bb, Fm, Cm
Then back to riff once and then 2nd verse
Chorus
C Am G
peace and joy in your mind
C Am E
i want the peace and the joy in your mind
C Am G
give me peace and joy in your mind
C Am E
i want the peace and the joy in your mind
After this comes a solo with tremolo picking which I can´t really make out on he version
i have.
Chords for chorus
It sounds like he´s playing the chord really high up the fretboard
C Am G E
e-0-------0-------15-------0----------
B-13------13------0--------0----------
G-0-------14------0--------13---------
D-14------14------0--------14---------
A-15------0-------14-------14---------
E-X-------x-------15-------0----------




Ваше мнение



Капча