Standard Tuning
= slide down
r = let note ring
+ = put your finger on the string to stop the note
Verse
G|--------------------------------------------------------------------|
D|--------------------------------------------------------------------|
A|----9-9-+-9-+-9-+-9-----------------9-9-+-9-+-9-+-9-----------------|
E|-14----------------9-9-+-9-+-9-+-9-----------------9-9-+-9-+-9-+-9-|
Chorus
G|--------------------------------------------------------------------|
D|--------------------------------------------------------------------|
A|----9-(x32)-------------------------11-(x16)--------12-(x16)--------|
E|-14----------------------------------------------------------------|
G|-----------------------------------------------------------------|
D|-----------------------------------------------------------------|
A|-----------------------------------------------------------------|
E|-9-(x16)---------5-(x16)---------9-(x32)-------------------------|
Other bit
G|---------------------------------------------------------|
D|---------------------------------------------------------|
A|-------------------------99-99-99-99---------------------|
E|-99-99-99-99-99-99-99-99-------------1010-1010-1010-1010-|
G|---------------------------------------------------------|
D|---------------------------------------------------------|
A|-------------------------99-99-99-99---------------------|
E|-99-99-99-99-99-99-99-99-------------1010-1010-1010-1010-|
G|-------------------------|
D|-------------------------|
A|-------------------------|
E|-77-77-77-77-88-88-88-88-|
Outro
G|-------------------------------------------------|
D|-------------------------------------------------|
A|-------------------9r----------------------9r----|
E|-9r----9r----9r----------10r---7r----9r----------|
Rest
Verse
Chorus
Rest
Verse
Chorus
Other bit
Rest
Verse
Chorus
Other bit
Outro




Ваше мнение



Капча