----- MURDERDOLLS - WHITE WEDDING - SOLO -----
standard tuning... I think!! :D
|-2------------2-----------2-----------2---5--4------------------|
|---3--------3---3-5--3------3-------3---3-----------------------|
|-----4---4--------------------4---4-----------------------------|
|-------4------------------------4-------------------------------|
|----------------------------------------------------------------|
|----------------------------------------------------------------|
|-2------------2-----------2-----------2-------------------------|
|---3--------3---3-----------3-------3---3-----------------------|
|-----4---4--------------------4---4-----------------------------|
|-------4------------------------4-------------------------------|
|----------------------------------------------------------------|
|----------------------------------------------------------------|
|-2------------2-----------2-----------2---5--4------------------|
|---3--------3---3-----------3-------3---3-----------------------|
|-----4---4--------------------4---4-----------------------------|
|-------4------------------------4-------------------------------|
|----------------------------------------------------------------|
|----------------------------------------------------------------|
Have fun guitarin'!!! ROCK ON m/




Ваше мнение



Капча