#-----------------------------------------------------------------------------#
#-- File created with Instab - http://www.pconline.com/~smcarey/instab.html --#
#-----------------------------------------------------------------------------#

Author/Artist: Murderdolls
Title: People Hate Me
Album: Beyond the Valley of the Murderdolls
Transcribed by: Ross
Email: [email protected]

Tuning: Standard (EADGBe)

This tab isn't exact but it's as close i can get to
the real version. You'll think its crap but its my
first tab so gimme a break!! Please rate this tab
so I can see how crap you think I'm at tabbing
shit out.

Figure out timing and stuff on your own.
I can't tab out the solo and high-pitched fills coz i'm shit

INTRO
------------------------------------------------------------------------------
------------------------------------------------------------------------------
------------------------------------------------------------------------------
------------------------------------------------------------------------------
-------------2-1------------------------------2-1-----------5-4-3-------------
-0-0-1-2-3-0-----0-1-2-3-0-3-2-1--0-0-1-2-3-0-----0-1-2-3-0-------------------

------------------------------------------------------|-----------------------
------------------------------------------------------|-----------------------
------------------------------------------------------|-----------------------
----------------------------------2--4--6/7-6-4-------|-----------------------
-------------2-1------------------2--4--6/7-6-4-------|-----------------------
-0-0-1-2-3-0-----0-1-2-3-0-3-2-1--0-02-04/5-4-2-3-2-1-|-----------------------
PM. . .
VERSE
---------------------------------|--------------------------------------------
---------------------------------|--------------------------------------------
---------------------------------|--------------------------------------------
---------------------------------|--------------------------------------------
-------------2-1-----------------|--------------------------------------------
-0-0-1-2-3-0-----0-1-2-3-0-3-2-1-|--------------------------------------------

BIT HALFWAY THROUGH THE VERSE
--------------------------------------------------|---------------------------
--------------------------------------------------|---------------------------
--------------------------------------------------|---------------------------
-4-4-4-4-4--2-4-4-4-4-4--2-4-4-2-4-4--2-4/7-7-7-7-|---------------------------
-4-4-4-4-4--2-4-4-4-4-4--2-4-4-2-4-4--2-4/7-7-7-7-|---------------------------
-2-2-2-2-2--0-2-2-2-2-2--0-2-2-0-2-2--0-2/5-5-5-5-|---------------------------

PRE-CHORUS FILL BEFORE CHORUS
--------------------------|---------------------------------------------------
--------------------------|---------------------------------------------------
--------------------------|---------------------------------------------------
--------------------------|-111098-----------------------------------------
-0-0-1-2-0-0-1-2--5-4-4-4-|-111098-----------------------------------------
--------------------------|--9-876-----------------------------------------
GRADUALLY SLIDE DOWN

CHORUS
-----------------------------------------------------|------------------------
-----------------------------------------------------|------------------------
-----------------------------------------------------|------------------------
-5--2--9-9-97-7-7-7-7-7--5--2--11-11-117-7-7-7-7-7-|------------------------
-5--2--9-9-97-7-7-7-7-7--5--2--11-11-117-7-7-7-7-7-|------------------------
-3--0--7-7-75-5-5-5-5-5--3--0---9--9--95-5-5-5-5-5-|------------------------

BIT BEFORE SOLO
--------------------------------------------------------------|---------------
--------------------------------------------------------------|---------------
--------------------------------------------------------------|---------------
-2---2-2-2-2---5-5/6-6/7-7--2---7-7/8-8/9-9/10-10/11-11/12-12-|---------------
-2---2-2-2-2---5-5/6-6/7-7--2---7-7/8-8/9-9/10-10/11-11/12-12-|---------------
-0---0-0-0-0---3-3/4-4/5-5--0---5-5/6-6/7-7/-8--8/-9--9/10-10-|---------------
PM. . .
THIS IS PLAYED BEHIND THE SOLO
----------------------|-------------------------------------------------------
----------------------|-------------------------------------------------------
----------------------|-------------------------------------------------------
-2-2-3-4-2-2-3-4--7-6-|-------------------------------------------------------
-2-2-3-4-2-2-3-4--7-6-|-------------------------------------------------------
-0-0-1-2-0-0-1-2--5-4-|-------------------------------------------------------
PALM MUTE LAST 2 CHORDS ON THE 4TH TIME
LAST VERSE
---------------------|--------------------------------------------------------
---------------------|--------------------------------------------------------
---------------------|--------------------------------------------------------
---------------------|--------------------------------------------------------
-0-0-1-2-0-0-1-2-5-4-|--------------------------------------------------------
---------------------|--------------------------------------------------------
PM. . . . . . . . .

And that's it. If you can do any better then you tab it out.
If you can tab out the solo as well while your at it then that'll be great.


Ваше мнение



Капча