tab by : atticus-dude 182
this one is not really perfect but you can hear it in the song
it's a easy solo..

E-------------------------------------------------------------]
A-------------------------------------------------------------]
D--5-7-9-7-5-7-5---4------------------------------------------]
G----------------7---5--3-5-3-2-3-232-------------------------]
B------------------------------------3--3-5-3-2-3-2-----------]
E---------------------------------------------------3-1-0/1-3-]

E-------------5--7-8-10-8---------------]
A------5--6-8---------------------------]
D--0/5----------------------------------]
G---------------------------------------]
B---------------------------------------]
E---------------------------------------]

E-0--13/12/13-15--13/12/13-15--13/12/13-15--13/12/13-15--13/12-----------]
A--------------------------------------------------------------13-15-13--]
D------------------------------------------------------------------------]
G------------------------------------------------------------------------]
B------------------------------------------------------------------------]
E------------------------------------------------------------------------]




Ваше мнение



Капча