I Love To Say Fuck
Murderdolls
E A D G B E
E-------------
B-------------
G------------- FUCK!
D-------------
A--9-9-9-9-9--
E--7-7-7-7-7--
E-----------------------------------
B-----------------------------------
G----------------------------------- x4 Intro/verse
D-----------------------x-x--x-x-x--
A--2-2-2-2--5-5-5-5--2--x-x--x-x-x--
E--0-0-0-0--3-3-3-3--0--x-x--x-x-x--
E-----------------------------------
B-----------------------------------
G----------------------------------- x9 Verse
D-----------------------x-x--x-x-x--
A--2-2-2-2--5-5-5-5--2--x-x--x-x-x--
E--0-0-0-0--3-3-3-3--0--x-x--x-x-x--
E-----------------------------------------------
B-----------------------------------------------
G----------------------------------------------- x1 Chorus Pt.1
D--2~~~~~~2----------2~~~~~~2-4~4~4~4~4~4~4~4~--
A--0~~~~~~0-2~~~~~~2-0~~~~~~0-2~2~2~2~2~2~2~2~--
E-----------0~~~~~~0----------------------------
E-----------------------------------
B-----------------------------------
G----------------------------------- x4 Chorus Pt.2
D-----------------------x-x--x-x-x--
A--2-2-2-2--5-5-5-5--2--x-x--x-x-x--
E--0-0-0-0--3-3-3-3--0--x-x--x-x-x--
E-----------------------------------
B-----------------------------------
G----------------------------------- x9 Verse
D-----------------------x-x--x-x-x--
A--2-2-2-2--5-5-5-5--2--x-x--x-x-x--
E--0-0-0-0--3-3-3-3--0--x-x--x-x-x--
E-----------------------------------------------
B-----------------------------------------------
G----------------------------------------------- x1 Chorus Pt.1
D--2~~~~~~2----------2~~~~~~2-4~4~4~4~4~4~4~4~--
A--0~~~~~~0-2~~~~~~2-0~~~~~~0-2~2~2~2~2~2~2~2~--
E-----------0~~~~~~0----------------------------
E-----------------------------------
B-----------------------------------
G----------------------------------- x4 Chorus Pt.2
D-----------------------x-x--x-x-x--
A--2-2-2-2--5-5-5-5--2--x-x--x-x-x--
E--0-0-0-0--3-3-3-3--0--x-x--x-x-x--
E-----------------------------------
B-----------------------------------
G----------------------------------- x4 Solo in background
D-----------------------x-x--x-x-x-- which i dont know.
A--2-2-2-2--5-5-5-5--2--x-x--x-x-x--
E--0-0-0-0--3-3-3-3--0--x-x--x-x-x--
--Bass solo part--
E----------------------
B----------------------
G---------------------- x9 (Palm muted)
D--2-2-2-2--5-5-5-5-2--
A----------------------
E----------------------
E-----------------------------------------------
B-----------------------------------------------
G----------------------------------------------- x1 Chorus Pt.1
D--2~~~~~~2----------2~~~~~~2-4~4~4~4~4~4~4~4~--
A--0~~~~~~0-2~~~~~~2-0~~~~~~0-2~2~2~2~2~2~2~2~--
E-----------0~~~~~~0----------------------------
E-----------------------------------
B-----------------------------------
G----------------------------------- x4 Chorus Pt.2
D-----------------------x-x--x-x-x--
A--2-2-2-2--5-5-5-5--2--x-x--x-x-x--
E--0-0-0-0--3-3-3-3--0--x-x--x-x-x--
(Speeds up)
E----------------
B----------------
G---------------- x24
D----------------
A--2~2~2--5-7-5--
E--0~0~0--3-5-3--
E------------
B------------
G------------ FUCK!
D------------
A--9-9-9-9---
E--7-7-7-7---
An easy song to play, but its fun. look at my other tabs and rate em' plz.
P.S. i did the white wedding (ver 1), slit ma wrist (ver 3) tabs but it came up
as 'tabbed by unregistered' which sucks, but i did em'. thx.....


Ваше мнение



Капча