murderdolls
graverobbing usa
from beyond the valley of the murderdolls
by Jez W
start + verse
G|---------------------------------------------------------------
D|---------------------------------------------------------------
A|-------------------5-54/5----------3-32/3--------------------
E|--3-32/3--------------------------------------------3-32/3---
chorus + solo
G|-----------------------------------------------------------
D|-----------------------------------------------------------
A|-------------------5-5-5-5-5-5-5-5--3-3-3-3-3-3-3-3--------
E|--3-3-3-3-3-3-3-3------------------------------------3--x8-
comments etc. to [email protected]




Ваше мнение



Капча