#----------------------------------PLEASE NOTE---------------------------------#
#This file is the author's own work and represents their interpretation of the-#
#song. You may only use this file for private study, scholarship, or research.-#
#------------------------------------------------------------------------------#
Murderdolls - Dress To Depress
Submitted By: jimi hendrix wannabe
EMail: [email protected]
Tab Legend
pm...... = Palm mute
>>> = Pick scrape down fretboard
Intro
E|---------------------------------------------------------------------------||
B|---------------------------------------------------------------------------||
G|---------------------------------------------------------------------------||
D|---------------------------------------------------------------------------||
A|-/-6-6-6-6-6-6-6-6-6-6-6-6-6-6-6-6-/-6-6-6-6-6-6-6-6-6-6-6-6-6-6-6-6-------||
E|-/-4-4-4-4-4-4-4-4-4-4-4-4-4-4-4-4-/-4-4-4-4-4-4-4-4-4-4-4-4-4-4-4-4-------||
pm.............................
E|-----------------------------------------------------------||
B|-----------------------------------------------------------||
G|-----------------------------------------------------------||
D|-----------------------------------------------------------||
A|-/-6-6-6-6-6-6-6-6-6-6-6-6-6-6-6-6-/-6-6-6-6-6-6-6-6->->-----||
E|-/-4-4-4-4-4-4-4-4-4-4-4-4-4-4-4-4-/-4-4-4-4-4-4-4-4->->-----||
pm............................. ^pick scrape down fretboard
E|---------------------------------------------------------------------||
B|---------------------------------------------------------------------||
G|---------------------------------------------------------------------||
D|-6-6-6-6--------------------------6-6-6-6-----------------999-777----||
A|-4-4-4-4-6-6-6-6-7-7-7-7-2-2-2-2--4-4-4-4-6-6-6-6-7-7-7-7-777-555----||
E|---------4-4-4-4-5-5-5-5-0-0-0-0----------4-4-4-4-5-5-5-5------------||
E|---------------------------------------------------------------------||
B|---------------------------------------------------------------------||
G|---------------------------------------------------------------------||
D|-6-6-6-6--------------------------6-6-6-6-----------------999-777----||
A|-4-4-4-4-6-6-6-6-7-7-7-7-2-2-2-2--4-4-4-4-6-6-6-6-7-7-7-7-777-555----||
E|---------4-4-4-4-5-5-5-5-0-0-0-0----------4-4-4-4-5-5-5-5------------||
E|---------------------------------------------------------------------||
B|---------------------------------------------------------------------||
G|---------------------------------------------------------------------||
D|-6-6-6-6--------------------------6-6-6-6-----------------999-777----||
A|-4-4-4-4-6-6-6-6-7-7-7-7-2-2-2-2--4-4-4-4-6-6-6-6-7-7-7-7-777-555----||
E|---------4-4-4-4-5-5-5-5-0-0-0-0----------4-4-4-4-5-5-5-5------------||
E|---------------------------------------------------------------------||
B|---------------------------------------------------------------------||
G|---------------------------------------------------------------------||
D|-6-6-6-6--------------------------6-6-6-6-----------------999-777----||
A|-4-4-4-4-6-6-6-6-7-7-7-7-2-2-2-2--4-4-4-4-6-6-6-6-7-7-7-7-777-555----||
E|---------4-4-4-4-5-5-5-5-0-0-0-0----------4-4-4-4-5-5-5-5------------||
E|---------------------------------------------------------------------||
B|---------------------------------------------------------------------||
G|---------------------------------------------------------------------||
D|-6-6-6-6--------------------------6-6-6-6-----------------999-777----||
A|-4-4-4-4-6-6-6-6-7-7-7-7-2-2-2-2--4-4-4-4-6-6-6-6-7-7-7-7-777-555----||
E|---------4-4-4-4-5-5-5-5-0-0-0-0----------4-4-4-4-5-5-5-5------------||
E|--------------------------------------------------------------------||
B|--------------------------------------------------------------------||
G|--------------------------------------------------------------------||
D|-6-6-6-6-----------------999-777---6-6-6-6-----------------999-777--||
A|-4-4-4-4-6-6-6-6-7-7-7-7-777-555---4-4-4-4-6-6-6-6-7-7-7-7-777-555--||
E|-4-4-4-4-5-5-5-5-------------------4-4-4-4-5-5-5-5------------------||
E|------------------------------------------------------------------------------||
B|------------------------------------------------------------------------------||
G|------------------------------------------------------------------------------||
D|------------------------------------------------------------------------------||
A|-4-4-44--7-7-77-7--2-------4-4-44--7-7-77-7--2---2-2-2------------------------||
E|-2-2-22--5-5-55-5--0----2b-2-2-22--5-5-55-7--0---0-0-0------------------------||

E|----------------------0-------------------------------------------------------||
B|----------------------0-------------------------------------------------------||
G|------------------------------------------------------------------------------||
D|------------------------------------------------------------------------------||
A|-4-4-44--7-7-77-7--2--------4-4-44--7-7-77-7--2---2-2-2-----------------------||
E|-2-2-22--5-5-55-5--0-----2b-2-2-22--5-5-55-5--0---0-0-0-----------------------||

E|------------------------------------------------------------------------------||
B|------------------------------------------------------------------------------||
G|------------------------------------------------------------------------------||
D|------------------------------------------------------------------------------||
A|-4-4-44--7-7-77-7--2-------4-4-44--7-7-77-7--2--------------------------------||
E|-2-2-22--5-5-55-5--0----2b-2-2-22--5-5-55-7--0--------------------------------||

E|----------------------0-------------------------------------------------------||
B|----------------------0-------------------------------------------------------||
G|------------------------------------------------------------------------------||
D|------------------------------------------------------------------------------||
A|-4-4-44--7-7-77-7--2--------4-4-44--7-7-77-7--2-------------------------------||
E|-2-2-22--5-5-55-5--0-----2b-2-2-22--5-5-55-5--0-------------------------------||
E|------------------------------------------------------------------------------||
B|------------------------------------------------------------------------------||
G|------------------------------------------------------------------------------||
D|------------------------------------------------------------------------------||
A|-4-4-44--7-7-77-7--2-------4-4-44--7-7-77-7--2---2-2-2------------------------||
E|-2-2-22--5-5-55-5--0----2b-2-2-22--5-5-55-7--0---0-0-0------------------------||

E|----------------------0-------------------------------------------------------||
B|----------------------0-------------------------------------------------------||
G|------------------------------------------------------------------------------||
D|------------------------------------------------------------------------------||
A|-4-4-44--7-7-77-7--2--------4-4-44--7-7-77-7--2---2-2-2-----------------------||
E|-2-2-22--5-5-55-5--0-----2b-2-2-22--5-5-55-5--0---0-0-0-----------------------||
Thats all right i think Email me if theres any corrections or any comments!
have fun playing :) and rock on!!!




Ваше мнение



Капча