Die My Bride
by : Murderdolls

Intro

|-----------------------|
|-----------------------|
|-----------------------|
|-----------------------|
|-----------------------|
|0-0-0-1-0-0-0-1-0-0-0-1| repeat until next verse begins

Riff 1

|-----------| |-----------|
|-----------| |-----------|
|-----------| |-----------|
|2-2-1-2-2-2| |2-2-1-2-7-5|
|2-2-1-2-2-2| |2-2-1-2-7-5|
|0-0-1-0-0-0| repeat until |0-0-1-0-7-5|

Riff 2

|--------------|
|8-----7----5--|
|--------------|
|--------------|
|--------------|
|--------------|

Riff 3

|7-6--5-4-7-6--5-4|
|-----------------|
|-----------------|
|-----------------|
|-----------------|
|-----------------|

Chorus

|-------------|
|-------------|
|-------------|
|2-2-1-2-2-2-2|
|2-2-1-2-2-2-2|
|0-0-1-0-0-0-2|

THats all, enjoy




Ваше мнение



Капча