Music by Murderdolls
Arranged by Murderdolls
Transcribed by Tim P (****Beef)
This song is in 'Standard' Tuning
E-A-D-G-B-E
Intro Verse - 1st Guitarist Verse - 2nd Guitarist
|----------||-----------------------------||-12-12-12-12-12-12-12-12--||--|
|---------o||----------------------------o||-17-17-17-17-17-17-17-17-o||--|
|----------||-----------------------------||--------------------------||--|
|-2-2-3-2--||-2-2-3-2--2-2--2-2-3-2--2-2--||--------------------------||--|
|-2-2-3-2-o||-2-2-3-2--2-2--2-2-3-2--2-2-o||-------------------------o||--|
|-0-0-1-0--||-0-0-1-0--0-0--0-0-1-0--0-0--||--------------------------||--|
Pre-Chorus - Both Guitarists
|---------------------------------|----------------------------|--|
|---------------------------------|----------------------------|--|
|---------------------------------|----------------------------|--|
|-5-5-5-5-5-5-5-5-4-4-4-4-3-3-3-3-|-2-2-3-2--2-2--2-2-3-2--2-2-|--|
|-5-5-5-5-5-5-5-5-4-4-4-4-3-3-3-3-|-2-2-3-2--2-2--2-2-3-2--2-2-|--|
|-3-3-3-3-3-3-3-3-2-2-2-2-1-1-1-1-|-0-0-1-0--0-0--0-0-1-0--0-0-|--|
|---------------------------------|--|
|---------------------------------|--|
|---------------------------------|--|
|-5-5-5-5-5-5-5-5-4-4-4-4-3-3-3-3-|--|
|-5-5-5-5-5-5-5-5-4-4-4-4-3-3-3-3-|--|
|-3-3-3-3-3-3-3-3-2-2-2-2-1-1-1-1-|--|
Chorus - Both Guitarists
|------------------|---------------------||--|
|------------------|--------------------o||--|
|----5-------------|----5---------10-10--||--|
|-2--5----5-5--7-8-|-2--5----5-5--10-10--||--|
|-2--3----5-5--7-8-|-2--3----5-5---8--8-o||--|X = dead palm (no note)
|-0----XX-3-3--5-6-|-0----XX-3-3---------||--|
Pre-Solo - 1st Guitarist
|-----------------------------|
|-----------------------------|
|-----------------------------|
|-2-2-3-2--2-2-3-2------------|
|-2-2-3-2--2-2-3-2------------|
|-0-0-1-0--0-0-1-0--1-/12\-1--|
SOLO - 2nd Guitarist (this solo is nowhere near 100% correct, just a basic guide)
|--------------------------------------------------------------------------------------------------|
|--------------------------------------------------------------------------------------------------|
|-7b-7b-7b-7b-7b-7b-6b-6b-6b-5b-5b-5b--------------------------------------------------------------|
|---------------------------------------8b---5h7p5-------------------------------------------------|* = AH
|----------------------------------------------------7--*5-*4-*3-----------------------------------|
|-----------------------------------------------------------------*6b--*3----/7-9-8-10-9-11-10-12--|
~~ PM...................
|------------------------------------------------------|
|------------------------------------------------------|
|-------------------14b--------------------------------|
|-------------12-14-----------14-12-14-----------------|
|-------12-14---------------------------12-14----------|
|-12-14------------------------------------------------|
PM................
LEGEND:
PM = Palm Mute
*(AH) = Artificial Harmonic
/\ = Slide up/down
b = bend
h/p = hammer/pull off
~~ = hold/trill




Ваше мнение



Капча