Artist:murderdolls
Song:dawn of the dead
Album:Beyond the valley of the murderdolls

Tune standard
Intro 1x
E |--7-7--6-6--2-2-2-2--7-7--6-6----------|
B |------------------------------4-4-4-4--|
G |---------------------------------------|
D |---------------------------------------|
A |---------------------------------------|
E |---------------------------------------|

E |---------------------------------------------------------|
B |---------------------------------------------------------|
G |---------------------------------------------------------|
D |---------------------------------------------------------|
A |--2-2-5-5--5----9-9-7-9--2*-2*-2*-2*--5-5--5----9-9-7-9--|
E |--0-0-3-3--3-0--7-7-5-7--0*-0*-0*-0*--3-3--3-0--7-7-5-7--|
* *
Second guitar
E |-------------------------------|--------|
B |-------------------------------|--7--9--|
G |-------------------------------|--------|
D |-------------------------9--11-|--------|
A |--2-2-5-5--5----9-9-7-9--7--9--|--------|
E |--0-0-3-3--3-0--7-7-5-7--------|--------|
* *

Verse riff 3x Second guitar
E |--7-7--6-6--2-2-2-2--7-7-6-6----------|--171717171717^--|
B |-----------------------------4-4-4-4--|-----------------|
G |--------------------------------------|-----------------|
D |--------------------------------------|-----------------|
A |--------------------------------------|-----------------|
E |--------------------------------------|-----------------|

Riff: We are the dead, and we are coming for you......
E |---------------------------------------------------------|
B |---------------------------------------------------------|
G |---------------------------------------------------------|
D |---------------------------------------------------------|
A |--2-2-5-5--5----9-9-7-9--2*-2*-2*-2*--5-5--5----9-9-7-9--|
E |--0-0-3-3--3-0--7-7-5-7--0*-0*-0*-0*--3-3--3-0--7-7-5-7--|
* *
Second guitar
E |--------------------------------|--------|
B |--------------------------------|--7--9--|
G |--------------------------------|--------|
D |-------------------------9--11--|--------|
A |--2-2-5-5--5----9-9-7-9--7--9---|--------|
E |--0-0-3-3--3-0--7-7-5-7---------|--------|
* * Second guitar
Chorus 2x
E |----------------------------------------|--7-7--6-6--2-2-2-2--7-7--6-6----------|
B |----------------------------------------|------------------------------4-4-4-4--|
G |----------------------------------------|---------------------------------------|
D |----------------------------------------|---------------------------------------|
A |--9-9--8-8--4-4-4-4--9-9--8-8--6-6-6-6--|---------------------------------------|
E |--7-7--6-6--2-2-2-2--7-7--6-6--6-6-6-6--|---------------------------------------|




Ваше мнение



Капча