B-movie scream queen- Murderdolls
Beyond the valley of the Murderdolls
Tabbed by Steve Koch
Hey all you dolls fans, this is an awsome song and it has a solo that isn't
as impossible as songs like love at first fright. Enjoy and piece out!
Any queries drop us an email [email protected]
Intro:
Gtr.1:
e|--------------------------------------------------------------------------------|
B|--6-7-6-6-4--4-4-6h7p6p4----6-7-6-6-4--4-4-6h7p6p4----6-7-6-6-4--4-4-6h7p6p4----|
G|-------------------------5-------------------------5-------------------------5--|
D|--------------------------------------------------------------------------------|
A|--------------------------------------------------------------------------------|
E|--------------------------------------------------------------------------------|
e|--------------------------------------------------------------------|
B|--------------------------------------------------------------------|
G|--3-3-3-3-3/5-------------------------------------------------------|
D|--------------6-----------------------------------------------------|
A|--------------------------------------------------------------------|
E|--------------------------------------------------------------------|
Gtr.1:
e|-------------------------------------------------------------------------------------------------------
B|6-7-6-6-4--4-4-6h7p6p4----6-7-6-6-4--4-4-6h7p6p4----6-7-6-6-4--4-4-6h7p6p4-----------------------------
G|-----------------------5-------------------------5-------------------------5--3-3-3-3-3/5--------------
D|------------------------------------------------------------------------------------------6------------
A|-------------------------------------------------------------------------------------------------------
E|-------------------------------------------------------------------------------------------------------
Gtr.2:
e|--------------------------------------------------------------------------------------------------------
B|--------------------------------------------------------------------------------------------------------
G|8-8-8-8-8-8-8-8-8-8-8-8-8-8-8-8-8-8-8-8-8-8-8-8-8-8-8-8-8-8-8-8-8-8-8--3-3-3-5-----------13-13-13-13-13-
D|8-8-8-8-8-8-8-8-8-8-8-8-8-8-8-8-8-8-8-8-8-8-8-8-8-8-8-8-8-8-8-8-8-8-8--3-3-3-5-6-6-6-6-6-13-13-13-13-13-
A|6-6-6-6-6-6-6-6-6-6-6-6-6-6-6-6-6-6-6-6-6-6-6-6-6-6-6-6-6-6-6-6-6-6-6--1-1-1-3-6-6-6-6-6-10-10-10-10-10-
E|-------------------------------------------------------------------------------4-4-4-4-4----------------
Verse:
e|---------------------------------------------------------|
B|---------------------------------------------------------|
G|--8-8-8-8-8-8-8-8-8-8-8-5-5-5-5-5-5-5-5-3-3-3-3-3-3-3-3--|
D|--8-8-8-8-8-8-8-8-8-8-8-5-5-5-5-5-5-5-5-3-3-3-3-3-3-3-3--|
A|--6-6-6-6-6-6-6-6-6-6-6-3-3-3-3-3-3-3-3-1-1-1-1-1-1-1-1--|
E|---------------------------------------------------------|
Pre-Chorus:
* * * * * * * * * *
e|-------------------------------------------------------------------------------|
B|-------------------------------------------------------------------------------|
G|---------------------------8-8-8-8-8-8-8-8-------------------------------------|
D|--6-6--6-6--6-6-6-6-6-6-6--8-8-8-8-8-8-8-8--6-6--6-6--4-4--4-4--3-3-3-3-3-3-3--|
A|--6-6--6-6--6-6-6-6-6-6-6--6-6-6-6-6-6-6-6--6-6--6-6--4-4--4-4--3-3-3-3-3-3-3--|
E|--4-4--4-4--4-4-4-4-4-4-4-------------------4-4--4-4--2-2--2-2--1-1-1-1-1-1-1--|
Chorus:
* * * * * *
e|--------------------------------------------------------------------------------|
B|--------------------------------------------------------------------------------|
G|--10-10-8--8-8-5--5-10-10-8--8-8-5--5-10-10-8--8-8-5--5-5--3-3-5----------------|
D|--10-10-8--8-8-5--5-10-10-8--8-8-5--5-10-10-8--8-8-5--5-5--3-3-5-6-6-6-6-6-6-6--|
A|--8--8--6--6-6-3--3-8--8--6--6-6-3--3-8--8--6--6-6-3--3-3--1-1-3-6-6-6-6-6-6-6--|
E|-----------------------------------------------------------------4-4-4-4-4-4-4--|
* * * * * *
e|------------------------------------------------------------------------------------------------------|
B|------------------------------------------------------------------------------------------------------|
G|--10-10-8--8-8-5--5-10-10-8--8-8-5--5-10-10-8--8-8-5--5-5--3-3-5----------------13-13-13-13-13-13-13--|
D|--10-10-8--8-8-5--5-10-10-8--8-8-5--5-10-10-8--8-8-5--5-5--3-3-5-6-6-6-6-6-6-6--13-13-13-13-13-13-13--|
A|--8--8--6--6-6-3--3-8--8--6--6-6-3--3-8--8--6--6-6-3--3-3--1-1-3-6-6-6-6-6-6-6--11-11-11-11-11-11-11--|
E|-----------------------------------------------------------------4-4-4-4-4-4-4------------------------|
Solo:
Gtr.1:
e|-----------------------------6---8b---------------------------------6---8b--------------------8b----------
B|6-6-9-9-6-6-9-9-6-6-9-9--6-9---9----9--6-6-9-9-6-6-9-9-6-6-9-9--6-9---9----9--6-6-9-9-6-6-9-9-----9-6b--6-
G|----------------------------------------------------------------------------------------------------------
D|----------------------------------------------------------------------------------------------------------
A|----------------------------------------------------------------------------------------------------------
E|----------------------------------------------------------------------------------------------------------
Gtr.2
e|-----------------------------------------------------------------------------------------|
B|-----------------------------------------------------------------------------------------|
G|8-8-8-8-8-8-8-8-8-8-8-8/10-8--6-6-6-6-6-6-6-6-6/8-6-5-5-5-5-5-5--3-3-3-3-3-3-3-----------|
D|8-8-8-8-8-8-8-8-8-8-8-8/10-8--6-6-6-6-6-6-6-6-6/8-6-5-5-5-5-5-5--3-3-3-3-3-3-3-3-3-3-(5)-|
A|6-6-6-6-6-6-6-6-6-6-6-6/8--6--4-4-4-4-4-4-4-4-4/6-4-3-3-3-3-3-3--1-1-1-1-1-1-1-3-3-3-(5)-|
E|-------------------------------------------------------------------------------1-1-1-(3)-|
Tabbed by Steve Koch




Ваше мнение



Капча