Intro:
E G D C G A# C
E|-4---3--------------3565---|
B|---5---3-3-321-130------65-|
G-------0--------|
D----------------|
A----------------|
E----------------|
C D# Em A C D# G
E--------------2323-14-15-14-15|
B|--------0--------------------------------|
G|-0-02320----------0-02323----------------|
D|----------2-2-0--------------------------|
A-----4------------------------|
E------------------------------|

E G D C
Солнечные ванны летом в парках у прудов
G A# C
Мы принимали с тобой в черных очках E|3-1-3--|
C D# Em A B|-3---1~|
Томные прохожие кусали взглядами
C D# G
Твое загорелое тело.
E G D C
Покупка натуральных прохладительных напитков,
G A# C B|3-323-323-323233|
Наблюдение движения облаков на небе B|1-101-101-101010|
C D# Em A
Обсуждение фильмов, книг и песен
C D# G
Популярных в молодежной среде.
D C D
Засыхают губы от жары, воды нет
C D (? что-то типа)
В маленькой бутылочке E|------5|
C D B|7-----5|
Осталось, делим на двоих G|7--5---| x3
G A# C D|--5-5--|
Две капли лимонада,
G A# C
Ли-лимонада.
G A# C
Две капли лимонада.
G A# C
Ли-лимонада.

Intro.

Покупка натуральных прохладительных напитков
Наблюдение движения облаков на небе
Обсуждение фильмов, книг и песен
Популярных в молодежной среде.

Засыхают губы от жары, воды нет
В маленькой бутылочке осталось,
Делим на двоих
Две капли лимонада,
Ли-лимонада
Две капли лимонада,
Ли-лимонада.

Outro
E|-3565-----------|
B|-----65---------|
G|----------02320-|
D----2|




Ваше мнение



Капча