Intro
(2x) (6x)
C#|--5-5----------------|--10-10---------------------
G#|------5-5-6-6--------|--------10-10-11-11---------
E |--------------5-5----|--------------------10-10---
B |---------------------|----------------------------
F#|---------------------|----------------------------
B |---------------------|----------------------------

(4x)
C#|--10-10-------------------10/15------------------- ( / = Slide up )
G#|--------10-10-11-11-------------15-15-16-16------- ( = Slide down )
E |--------------------10-10-------------------15---
B |--------------------------------------------------
F#|--------------------------------------------------
B |--------------------------------------------------
Verse 1
C#|--5-5-----------------10--------------------15-15--------------------
G#|------5-5-6-6------------10-10-11-11--------------15-15-16-16--------
E |--------------5-5--------------------10-10--------------------15-15-
B |---------------------------------------------------------------------
F#|---------------------------------------------------------------------
B |---------------------------------------------------------------------
C#|-----10---------------------
G#|--------10-10-11-11---------
E |--------------------10------
B |----------------------------
F#|----------------------------
B |-----------------|----------




Ваше мнение



Капча