Mudvayne-Some Assembly Required-Beggining of all thins to end
Tabbed By Paul Morrell
Intro
------------------------|
------------------------|
------------------------|
------------------------|
---0---0---0---0---777--|
---0---0---0---0---777--|
Chorus
------------------------|
------------------------|
------------------------|
------------------------|
---4305---04305---0777--|
---4305---04305---0777--|
Verse
--------------------------------------------------------------|
--------------------------------------------------------------|
--------------------------------------------------------------|
--------------------------------------------------------------|
---7777--7777--77--7777--7777--9/--7777--777757777--7777--9/--|
---7777--7777--77--7777--7777--9/--7777--777757777--7777--9/--|
Bridge A
--------------------------|
--------------------------|
------------9----------8--|
------------x----------x--|
---8--0-7--07-8--0-7--06--|
---8--0-7--0--8--0-7--0---|
Bridge B
-------------------|
-------------------|
-------------------|
-------------------|
---32000000000000--|
---32000000000000--|
PM Through out
Bridge C
-----------------------------------------------------------|
-----------------------------------------------------------|
-----------------------------------------------------------|
-----------------------------------------------------------|
---320000320032000032003200003200320000320032000000000000--|
---320000320032000032003200003200320000320032000000000000--|
PM Through Out
Bridge D
----------------------|
----------------------|
----------------------|
----------------------|
---200002---200003p2--|
---200002---200003p2--|
PM D5 chords(open)
Solo
-----------------------------------------|
-----------------------------------------|
-----------------------------------------|
-----------------------------------------|
-------------------12----------------12--|
---1413121413121413--1413121413121413----|
Outro A
-----------------------|
-----------------------|
-----------------------|
-----------------------|
---4305-----04305---7--|
---4305-----04305------|
7 on 5th String is a Pinch Harmonic.
Outro B is the same as Outro A but without the Pinch Harmonic at the end.
Outro C
---------------------------|
---------------------------|
---------------------------|
---------------------------|
---4305-----04305xxxxxxxx--|
---4305-----04305xxxxxxxx--|
Outro D
---------------------------------------------------------|
---------------------------------------------------------|
---------------------------------------------------------|
---------------------------------------------------------|
---4305043050453430504305045343050430504534305043050453--|
---4305043050453430504305045343050430504534305043050453--|




Ваше мнение



Капча