Song: Solve Et Coagula
Artist: Mudvayne
Album: The End of All Things to Come
Tabbed by: Christian / [email protected]
- Slide down
/ - Slide up
PM - Palm mute
h - Hammer on
p - Pull off
Tuning: C G C F A D
Intro
|-----------------------------------------------------------------------|
|-----------------------------------------------------------------------|
|-13--13-13-13-13-13-13-13-13-13-13--10--10-10-10-10-10--9--9-9-9-9-9-| x4
|-12--12-12-12-12-12-12-12-12-12-12---9---9--9--9--9--9--8--8-8-8-8-8-|
|-----------------------------------------------------------------------|
|-----------------------------------------------------------------------|
|-------------------------------|
|-------------------------------|
|-------------------------------| x8
|-------------------------------|
|-------------------------------|
|-3-3-3-0--2-2-2-2-0--2-2-2-2-0-|
Verse
|------------------------------------------------------------|
|------------------------------------------------------------|
|----------5/7-----------5/7-7-----------5/7-----------87-7-| x2
|-2-1-0-0-------2-1-0-0---------2-1-0-0-------2-1-0-0--------|
|-2-1-0-0--3/5--2-1-0-0--3/5-5--2-1-0-0--3/5--2-1-0-0--65-5-|
|-2-1-0-0-------2-1-0-0---------2-1-0-0-------2-1-0-0--------|
PM- - - - - - - - - - - - - - - -
Fill
|-----------------------------------|
|-----------------------------------|
|-----------------------------------| x1
|-0--0--0--0-0-0--0--0--0--0--0-0-0-|
|-0--0--0--0-0-0--0--0--0--0--0-0-0-|
|-0--0--0--0-0-0--0--0--0--0--0-0-0-|
Verse
|------------------------------------------------------------|
|------------------------------------------------------------|
|----------5/7-----------5/7-7-----------5/7-----------87-7-| x1
|-2-1-0-0-------2-1-0-0---------2-1-0-0-------2-1-0-0--------|
|-2-1-0-0--3/5--2-1-0-0--3/5-5--2-1-0-0--3/5--2-1-0-0--65-5-|
|-2-1-0-0-------2-1-0-0---------2-1-0-0-------2-1-0-0--------|
PM- - - - - - - - - - - - - - - -
Chorus
|-------------------------------|
|-------------------------------|
|-------------------------------| x8
|-------------------------------|
|-------------------------------|
|-3-3-3-0--2-2-2-2-0--2-2-2-2-0-|
Verse
|------------------------------------------------------------|
|------------------------------------------------------------|
|----------5/7-----------5/7-7-----------5/7-----------87-7-| x2
|-2-1-0-0-------2-1-0-0---------2-1-0-0-------2-1-0-0--------|
|-2-1-0-0--3/5--2-1-0-0--3/5-5--2-1-0-0--3/5--2-1-0-0--65-5-|
|-2-1-0-0-------2-1-0-0---------2-1-0-0-------2-1-0-0--------|
PM- - - - - - - - - - - - - - - -
Fill
|-----------------------------------|
|-----------------------------------|
|-----------------------------------| x1
|-0--0--0--0-0-0--0--0--0--0--0-0-0-|
|-0--0--0--0-0-0--0--0--0--0--0-0-0-|
|-0--0--0--0-0-0--0--0--0--0--0-0-0-|
Verse
|------------------------------------------------------------|
|------------------------------------------------------------|
|----------5/7-----------5/7-7-----------5/7-----------87-7-| x1
|-2-1-0-0-------2-1-0-0---------2-1-0-0-------2-1-0-0--------|
|-2-1-0-0--3/5--2-1-0-0--3/5-5--2-1-0-0--3/5--2-1-0-0--65-5-|
|-2-1-0-0-------2-1-0-0---------2-1-0-0-------2-1-0-0--------|
PM- - - - - - - - - - - - - - - -
Chorus
|-------------------------------|
|-------------------------------|
|-------------------------------| x8
|-------------------------------|
|-------------------------------|
|-3-3-3-0--2-2-2-2-0--2-2-2-2-0-|
Bridge
|-----------------------------------------------------------------|
|-----------------------------------------------------------------|
|-----------------------------------------------------------------| x2
|-----------------------------------------------------------------|
|-5-----------5-----------5---------------5---------------5-------|
|---3p2p0h2h3---3p2p0h2h3---3p2p0-3-3-3-3---3-3-3-2-2-2-2---2-2-2-|
|-----------------------------------------------------------------------|
|-----------------------------------------------------------------------|
|-13--13-13-13-13-13-13-13-13-13-13--10--10-10-10-10-10--9--9-9-9-9-9-| x3
|-12--12-12-12-12-12-12-12-12-12-12---9---9--9--9--9--9--8--8-8-8-8-8-|
|-----------------------------------------------------------------------|
|-----------------------------------------------------------------------|
|---------------------------------------------------------|
|---------------------------------------------------------|
|---------------------------------5-5-5-5-5-5-4-4-4-4-4-4-| x1
|---------------------------------3-3-3-3-3-3-2-2-2-2-2-2-|
|-5-----------5-----------5-------3-3-3-3-3-3-2-2-2-2-2-2-|
|---3p2p0h2h3---3p2p0h2h3---3p2p0-3-3-3-3-3-3-2-2-2-2-2-2-|
|----------------------------------------------------------|
|----------------------------------------------------------|
|--------------------------------------------------------5-| x1
|----------------------------------0-0-0h32-0--0--0-0-0---|
|-5-----------5-----------5--------0-0-0h32-0--0--0-0-0-3-|
|---3p2p0h2h3---3p2p0h2h3---3p2p0--0-0-0h32-0--0--0-0-0---|
PM - -
|---------------------------------------------------------|
|---------------------------------------------------------|
|---------------------------------5-5-5-5-5-5-4-4-4-4-4-4-| x1
|---------------------------------3-3-3-3-3-3-2-2-2-2-2-2-|
|-5-----------5-----------5-------3-3-3-3-3-3-2-2-2-2-2-2-|
|---3p2p0h2h3---3p2p0h2h3---3p2p0-3-3-3-3-3-3-2-2-2-2-2-2-|
Gradually release PM
|---------------------------------|
|---------------------------------|
|---------------------------------| x4
|-3-3-3-0-0-0-2-2-2-0-0-0-2-2-3-3-|
|-3-3-3-0-0-0-2-2-2-0-0-0-2-2-3-3-|
|-3-3-3-0-0-0-2-2-2-0-0-0-2-2-3-3-|
PM- - - - - - - - - - - - - - - -
Outro
|-------------------------------|
|-------------------------------|
|-------------------------------| x8
|-------------------------------|
|-------------------------------|
|-3-3-3-0--2-2-2-2-0--2-2-2-2-0-|




Ваше мнение



Капча