Song: Silenced
Artist: Mudvayne
Album: The End of All Things to Come
Tabbed by: Christian / [email protected]
Tuning: C G C F A D
h - Hammer on
p - Pull off
PM - Palm mute
Intro/Verse
|---------------------------|
|---------------------------|
|---------------------------| x8
|-0h3-8-3p0--0h3-8-3p0--0-0-|
|-0h3-8-3p0--0h3-8-3p0--0-0-|
|-0h3-8-3p0--0h3-8-3p0--0-0-|
|-------------------|
|-------------------|
|-------------------| x1
|-0-0-0-0---3-3-3-3-|
|-0-0-0-0---3-3-3-3-|
|-0-0-0-0---3-3-3-3-|
PM- - - - - - - -
Chorus
|-----------------------------------|
|-----------------------------------|
|------------0---0-------------0--0-| x4
|-0-0-0-0--4---4----3-3-3-3--5----4-|
|-0-0-0-0-----------3-3-3-3---------|
|-0-0-0-0-----------3-3-3-3---------|
PM- - - - - - - -
|---------------------------|
|---------------------------|
|---------------------------| x4
|-0h3-8-3p0--0h3-8-3p0--0-0-|
|-0h3-8-3p0--0h3-8-3p0--0-0-|
|-0h3-8-3p0--0h3-8-3p0--0-0-|
Chorus
|---------------------------------------------|
|---------------------------------------------|
|----------------------0---0-------------0--0-| x1
|-0-0-0-0---3-3-3-3--4---4----3-3-3-3--5----4-|
|-0-0-0-0---3-3-3-3-----------3-3-3-3---------|
|-0-0-0-0---3-3-3-3-----------3-3-3-3---------|
PM- - - - - - - - - - - -
Chorus
|-----------------------------------|
|-----------------------------------|
|------------0---0-------------0--0-| x3
|-0-0-0-0--4---4----3-3-3-3--5----4-|
|-0-0-0-0-----------3-3-3-3---------|
|-0-0-0-0-----------3-3-3-3---------|
PM- - - - - - - -
Verse
|---------------------------|
|---------------------------|
|---------------------------| x8
|-0h3-8-3p0--0h3-8-3p0--0-0-|
|-0h3-8-3p0--0h3-8-3p0--0-0-|
|-0h3-8-3p0--0h3-8-3p0--0-0-|
Bridge
|---------------------------|
|---------6---------6-------|
|---------------------------| x3
|---------------------------|
|-6p5-6p5---6p5-6p5---6p5h6-|
|---------------------------|
|---------------------------------------------------------------------|
|---------------------------------------------------------------------|
|---------------------------------------------------------------------| x2
|---------------------------------------------------------------------|
|---------------------------------------------------------------------|
|-1-0-1-0-3-2-2-1--1-0-1-0-3-2-2-3--1-0-1-0-3-2-2-1---1-0-1-0-3-2-2-3-|
PM- - - - - - - - - - - - - - - - - - - - - - - - - - - - - - - -
|-----------------------------|
|-----------------------------|
|-----------------------------| x1
|-1p0-1p0-3p2-1p0-1p0-3p2-1p0-|
|-1p0-1p0-3p2-1p0-1p0-3p2-1p0-|
|-1p0-1p0-3p2-1p0-1p0-3p2-1p0-|
|---------------------------------------------------------------|
|---------------------------------------------------------------|
|---------------------------------------------------------------| x1
|-----------------------------------------------------------0-0-|
|-----------------------------------------------------------0-0-|
|-1-0-1-0-3-2-2-1---1-0-1-0-3-2-2-1---1-0-1-0-3-2-2-1--2-2--0-0-|
PM- - - - - - - - - - - - - - - - - - - - - - - - - -
|-----------------------------|
|-----------------------------|
|-----------------------------| x4
|-1p0-1p0-3p2-1p0-1p0-3p2-1p0-|
|-1p0-1p0-3p2-1p0-1p0-3p2-1p0-|
|-1p0-1p0-3p2-1p0-1p0-3p2-1p0-|
|-------------------------------|
|-------------------------------|
|-------------------------------| x4
|-1p0-1p0-3p2-1p0-1p0-3p2-1p0---|
|-1p0-1p0-3p2-1p0-1p0-3p2-1p0-5-|
|-1p0-1p0-3p2-1p0-1p0-3p2-1p0---|
|-------------------|
|-------------------|
|-------------------| x1
|-0-0-0-0---3-3-3-3-|
|-0-0-0-0---3-3-3-3-|
|-0-0-0-0---3-3-3-3-|
PM- - - - - - - -
Chorus
|-----------------------------------|
|-----------------------------------|
|------------0---0-------------0--0-| x4
|-0-0-0-0--4---4----3-3-3-3--5----4-|
|-0-0-0-0-----------3-3-3-3---------|
|-0-0-0-0-----------3-3-3-3---------|
PM- - - - - - - -
Verse/Outro
|---------------------------|
|---------------------------|
|---------------------------| x8
|-0h3-8-3p0--0h3-8-3p0--0-0-|
|-0h3-8-3p0--0h3-8-3p0--0-0-|
|-0h3-8-3p0--0h3-8-3p0--0-0-|




Ваше мнение



Капча