Song: Shadow of a Man
Artist: Mudvayne
Album: The End of All Things to Come
Tabbed by: Christian / [email protected]
Tuning: C G C F A D
/ - Slide down
PM - Palm mute
x - Mute string
h - Hammer on
p - Pull off
Intro
|-----------------------------------|
|-----------------------------------|
|-8/7-7-7-7-------10-10-10-10-8/7---| x4
|-----------------------------------|
|-6/5-5-5-5-0-0-0--8--8--8--8-6/5-0-|
|-----------------------------------|
Verse
|--------------------------------|
|--------------------------------|
|--------------------------------| x8
|--------------------------------|
|-6-5-5-5-5-0-0-0-8-8-8-8-6-5-0--|
|--------------------------------|
PM-----------------------------
|-------------------------------------|
|-------------------------------------|
|-------------------------------------| x2
|-32-0h1-1p0-32-0h1-1p0--3-2--2-2-2-|
|-32-0h1-1p0-32-0h1-1p0--3-2--2-2-2-|
|-32-0h1-1p0-32-0h1-1p0--3-2--2-2-2-|
PM - - - - -
Verse
|--------------------------------|
|--------------------------------|
|--------------------------------| x4
|--------------------------------|
|-6-5-5-5-5-0-0-0-8-8-8-8-6-5-0--|
|--------------------------------|
PM-----------------------------
|-------------------------------------|
|-------------------------------------|
|-------------------------------------| x2
|-32-0h1-1p0-32-0h1-1p0--3-2--2-2-2-|
|-32-0h1-1p0-32-0h1-1p0--3-2--2-2-2-|
|-32-0h1-1p0-32-0h1-1p0--3-2--2-2-2-|
PM - - - - -
Chorus pt1 (play pt1 then pt2 x2)
|--------------------------------------------|
|--------------------------------------------|
|-7-7--------------------5-5-------------5-5-| x1
|-7-7--------------------5-5-------------5-5-|
|-5-5--------------------3-3-------------3-3-|
|-5-5-0-0-0--0--0-0-0-0--3-3-0-0-0--0--0-3-3-|
Chorus pt2
|------------------------------------------------|
|------------------------------------------------|
|-4-4--------------------7-7---------------------| x1
|-4-4--------------------7-7-------5p0-----7-----|
|-2-2--------------------5-5---------------------|
|-2-2-0-0-0--0--0-0-0-0--5-5-0-0-0-----0-0---0-0-|
PM - - - - - - -
Verse
|--------------------------------|
|--------------------------------|
|--------------------------------| x8
|--------------------------------|
|-6-5-5-5-5-0-0-0-8-8-8-8-6-5-0--|
|--------------------------------|
PM-----------------------------
|-------------------------------------|
|-------------------------------------|
|-------------------------------------| x2
|-32-0h1-1p0-32-0h1-1p0--3-2--2-2-2-|
|-32-0h1-1p0-32-0h1-1p0--3-2--2-2-2-|
|-32-0h1-1p0-32-0h1-1p0--3-2--2-2-2-|
PM - - - - -
Chorus pt1
|--------------------------------------------|
|--------------------------------------------|
|-7-7--------------------5-5-------------5-5-| x1
|-7-7--------------------5-5-------------5-5-|
|-5-5--------------------3-3-------------3-3-|
|-5-5-0-0-0--0--0-0-0-0--3-3-0-0-0--0--0-3-3-|
Chorus pt2
|------------------------------------------------|
|------------------------------------------------|
|-4-4--------------------7-7---------------------| x1
|-4-4--------------------7-7-------5p0-----7-----|
|-2-2--------------------5-5---------------------|
|-2-2-0-0-0--0--0-0-0-0--5-5-0-0-0-----0-0---0-0-|
PM - - - - - - -
Chorus pt3 - (play pt3 and pt4 x2)
|--------------------------------------------------|
|--------------------------------------------------|
|-7-7----------------------10-10-------------------| x1
|-7-7----------------------10-10-------------------|
|-5-5-----------------------8--8-------------------|
|-5-5-0-0-0--0--0--0-0-0-0--8--8-0-0-0--0--0-0-0-0-|
Chorus pt4
|--------------------------------------------------------|
|--------------------------------------------------------|
|-10--12-12--------------------15-15---------------------| x1
|-10--12-12--------------------15-15-------5p0-----7-----|
|--8--10-10--------------------13-13---------------------|
|--8--10-10-0-0-0--0--0-0-0-0--13-13-0-0-0-----0-0---0-0-|
PM - - - - - - -
Bridge
|-------------------------------|
|-------------------------------|
|-------------------------------| x1
|----------------x--7/4-0-5/2-0-|
|-7---------7----x--7/4-0-5/2-0-|
|---0--0--0---0--x--7/4-0-5/2-0-|
|---------------------------------|
|---------------------------------|
|---------------------------------| x4
|------------------x--7/4-0-5/2-0-|
|-7---------7p5----x--7/4-0-5/2-0-|
|---0--0--0-----0--x--7/4-0-5/2-0-|
|---------------------------|
|---------------------------|
|---------------------------| x8
|---------------------------|
|-7p5---------7p5-----7p5---|
|-----0--0--0-----0-0-----0-|
Verse - Gradually release PM
|--------------------------------| |-----------------------------------|
|--------------------------------| |-----------------------------------|
|--------------------------------| x4 |-8/7-7-7-7-------10-10-10-10-8/7---| x4
|--------------------------------| |-----------------------------------|
|-6-5-5-5-5-0-0-0-8-8-8-8-6-5-0--| |-6-5-5-5-5-0-0-0--8--8--8--8-6-5-0-|
|--------------------------------| |-----------------------------------|
PM-----------------------------
Chorus (apply rests where needed)
|--------------------------------------------------------------------------------|
|--------------------------------------------------------------------------------|
|-7-7---------------5-5---------------4-4---------------7-7----------------------| x1
|-7-7---------------5-5---------------4-4---------------7-7-------5p0-----7------|
|-5-5---------------3-3---------------2-2---------------5-5----------------------|
|-5-5-0-0-0--0-0-0--3-3-0-0-0--0-0-0--2-2-0-0-0--0-0-0--5-5-0-0-0-----0-0---0-0--|
PM _ _ _ - - - -
|-------------------------------------|
|-------------------------------------|
|-7-7--------------10-10--------------| x1
|-7-7--------------10-10--------------|
|-5-5---------------8--8--------------|
|-5-5-0-0-0--0-0-0--8--8-0-0-0--0-0-0-|
|------------------------------------------------------|
|------------------------------------------------------|
|-10--12-12------------------15-15---------------------| x1
|-10--12-12------------------15-15-------5p0-----7-----|
|--8--10-10------------------13-13---------------------|
|--8--10-10-0-0-0--0--0-0-0--13-13-0-0-0-----0-0---0-0-|
PM - - - - - - -
|---------------------------------------------------------------------|
|---------------------------------------------------------------------|
|-7-7-7-7-7-7--5-5-5-5-5-5/7-7--4-4-4-4-4-4--3-3-3-3-3-3--7-7-7-7-7-7-| x1
|-7-7-7-7-7-7--5-5-5-5-5-5/7-7--4-4-4-4-4-4--3-3-3-3-3-3--7-7-7-7-7-7-|
|-5-5-5-5-5-5--3-3-3-3-3-3/5-5--2-2-2-2-2-2--1-1-1-1-1-1--5-5-5-5-5-5-|
|-5-5-5-5-5-5--3-3-3-3-3-3/5-5--2-2-2-2-2-2--1-1-1-1-1-1--5-5-5-5-5-5-|
|---------------------------------------------------------|
|---------------------------------------------------------|
|-10-10-10-10-10-10--12-12-12-12-12-12--15-15-15-15-15-15-| x1
|-10-10-10-10-10-10--12-12-12-12-12-12--15-15-15-15-15-15-|
|--8--8--8--8--8--8--10-10-10-10-10-10--13-13-13-13-13-13-|
|--8--8--8--8--8--8--10-10-10-10-10-10--13-13-13-13-13-13-|
Outro
|-------------------------------------| |-----------------------|
|-------------------------------------| |-----------------------|
|-------------------------------------| x1 |-----------------------|
|-32-0h1-1p0-32-0h1-1p0--3-2--2-2-2-| |-32-0h1-1p0-32-0h1-1-|
|-32-0h1-1p0-32-0h1-1p0--3-2--2-2-2-| |-32-0h1-1p0-32-0h1-1-|
|-32-0h1-1p0-32-0h1-1p0--3-2--2-2-2-| |-32-0h1-1p0-32-0h1-1-|
PM - - - - -




Ваше мнение



Капча