Severed-Mudvayne
L.D. 50
Drop B:
B F# B E G# C#
< > = harmonics
+ = tap
Intro: (0:00)
x4
e--------------------------------------------------
b-------16-----------------------------------------
g----15----15-15-15-15-15-15-15-15-14-14-14-14-14--
d-14-----------0--0--0--0--0--0--0--0--0--0--0--0--
a--------------------------------------------------
d--------------------------------------------------
(0:13)
x2
e---------------------------------------
b--------------------16-----------------
g-----------------15----15-14-14-14-14--
d--------------14-----------0--0--0--0--
a-1----0-1------------------------------
d-1----0-1------------------------------
(0:20)
e-------------------------------------------
b-------------------------------------------
g-------------------------------------------
d-------------------------------------------
a-1----0-1-----0-0-0-0-0-0-0-0--1----0-1----
d-1----0-1-----0-0-0-0-0-0-0-0--1----0-1----
pm
Verse 1: (0:25) w/ pm
x9
e-----------------------------------
b-----------------------------------
g-----------------------------------
d-----------------------------------
a-0-0---0-------0-0--0-0---0--------
d-0-0---0-------0-0--0-0---0--------
e-----------------------------------------------
b--------------------------4-4---4-4---4-4---4--
g--------------------------3-3---3-3---3-3---3--
d--------------------------1-1---1-1---1-1---1--
a-1-1---1-1---1-1---1--1---1-1---1-1---1-1---1--
d-1-1---1-1---1-1---1--1---1-1---1-1---1-1---1--
e----------------------------------------------------
b----------------------------------------------------
g----------------------------------------------------
d----------------------------------------------------
a-0-0---0-------0-0--0-0---0--------0-0-0-0-0-0-0-0--
d-0-0---0-------0-0--0-0---0--------0-0-0-0-0-0-0-0--
Chorus: (1:05)
x4
Fig. 1
e-----------------------------------------------------------------------
b-----------------------------------------------------------------------
g----------------------------109---------------109-----------97------
d-----------------------------------------------------------------------
a-7-8-8-8-10-0-7-8-8-8-10-0-0-87-0-7-8-8-8-10-0-87-0-8-8-8-8-75------
d-8-8-8-8-10-0-8-8-8-8-10-0-0-----0-8-8-8-8-10-0-----0-8-8-8-8-----0-0--
then,
e--------------------------
b-------16-----------------
g----15----15-15-15-15-15--
d-14-----------0--0--0--0--
a--------------------------
d--------------------------
x3
e--------------------------------------------------
b-------16-----------------------------------------
g----15----15-15-15-15-15-15-15-15-14-14-14-14-14--
d-14-----------0--0--0--0--0--0--0--0--0--0--0--0--
a--------------------------------------------------
d--------------------------------------------------
(1:43)
x4
e--------------------------
b-----10-----10---10-------
g-10------10-------9-------
d--------------------------
a--------------------------
d--------------------------
pm
x5
e-----------------------------------
b-----------------------------------
g-----------------------------------
d-----------------------------------
a-0-0---0-------0-0--0-0---0--------
d-0-0---0-------0-0--0-0---0--------
e-----------------------------------
b-----------------------------------
g-----------------------------------
d-----------------------------------
a-0-0---0-------0-0--0-0---0---1/---
d-0-0---0-------0-0--0-0---0---1/---
e-----------------------------------------------
b--------------------------4-4---4-4---4-4---4--
g--------------------------3-3---3-3---3-3---3--
d--------------------------1-1---1-1---1-1---1--
a-1-1---1-1---1-1---1--1---1-1---1-1---1-1---1--
d-1-1---1-1---1-1---1--1---1-1---1-1---1-1---1--
(2:21)-(2:35)
x2
e----------------------------------------------------------------
b----------------------------------------------------------------
g----4----5----4----7----5-6-7-----------4----5-----5-6----------
d----0-------0----0------x-x-x-----------0--------0-x-x----------
a-0----------------------3-4-5-0-3-2--0-------------3-4-3-2-2-2--
d-0----------------------------0-3-2--0-----------------3-2-2-2--
e----------------------------------------------------------------
b----------------------------------------------------------------
g----4----5-----7----/10---10~~~~~~---------------------5-------
d----0--------0-0--0---0----0---------------------3-------
a-0---------------------------------0-0-----0-0-----0-0-4-------
d-0---------------------------------0-0-----0-0-----0-0---------
(2:49) all harmonics < >
x4
e-------------------------------------------
b-------------------------------------------
g-------------------------------------------
d----------------------------------------3--
a--------------------------------------3----
d------3-2-2-2-2-2-2-2-2-2-2-2-2-2-2-2------
(3:02)
x8
e------------------------------------
b------------------------------------
g--------------------------10101010--
d---------------------------x-x-x-x--
a-0-0-0-0-0---0-0-0-0--0--0-8-8-8-8--
d-0-0-0-0-0---0-0-0-0--0--0----------
(3:30)
e----------------------------------------------
b----------------------------------------------
g----------------------------------------------
d----------------------------------------------
a-0---0-0--0-0---0--0-0-0-0--0---0-0--0-0-0-0--
d-0---0-0--0-0---0--0-0-0-0--0---0-0--0-0-0-0--
(3:33)
x3
e-----------------------------------------
b-----------------------------------------
g-----------------------------------------
d-----------------------------------------
a-0-0-0-0--0---0-0--0-0---0--0-0-0-0-0-0--
d-0-0-0-0--0---0-0--0-0---0--0-0-0-0-0-0--
(3:44)
e-----------------------------------------------
b--------------------------4-4---4-4---4-4---4--
g--------------------------3-3---3-3---3-3---3--
d--------------------------1-1---1-1---1-1---1--
a-1-1---1-1---1-1---1--1---1-1---1-1---1-1---1--
d-1-1---1-1---1-1---1--1---1-1---1-1---1-1---1--
(3:49)
x3
e--------------------------------------------------
b-------14-----------------------------------------
g----15----15-15-15-15-15-15-15-15-14-14-14-14-14--
d-14-----------0--0--0--0--0--0--0--0--0--0--0--0--
a--------------------------------------------------
d--------------------------------------------------
(3:59)
e------------------------------------------
b------------------------------------------
g------------------------------------------
d----------------------------2-------------
a-0-0---0------0-0--0-0---0--3-------------
d-0-0---0------0-0--0-0---0----------------
Bass Solo: (4:05)
x2
+ + + +
g-----------------------------------------
d-----2---10p2---11p2-10p2-----------h2---
a---3---3------3-----------10/118p3------
d-5---------------------------------------
(4:11)
Bass: x8
+ + + +
g-----------------------------------------
d-----3---10p3---11p3-10p3-------------h2---
a---4---4------4-----------10----1110------
d-6-----------------------------------------
+ + + +
g-----------------------------------------
d-----2---10p2---11p2-10p2-----------h2---
a---3---3------3-----------10/118p3------
d-5---------------------------------------
Outro:
e-----------------------------------------------------------------------
b-----------------------------------------------------------------------
g----------------------------109---------------109-----------97------
d-----------------------------------------------------------------------
a-7-8-8-8-10-0-7-8-8-8-10-0-0-87-0-7-8-8-8-10-0-87-0-8-8-8-8-75------
d-8-8-8-8-10-0-8-8-8-8-10-0-0-----0-8-8-8-8-10-0-----0-8-8-8-8-----0-0--
that’s it
trevor jones
[email protected]




Ваше мнение



Капча