Prod-Mudvayne
L.D. 50
Drop B:
B F# B E G# C#
Intro: (0:00) (h2) w/ left hand
Fig. 1 x7
e-----------------------------------
b-----------------------------------
g-----------------------------------
d-----------------------------------
a-h2--x-x---x-h2--x-x---x-h2---x-x--
d-h2--x-x---x-h2--x-x---x-h2---x-x--
Verse 1: Fig. 1 x8 (0:18)
Verses 2,3,4&5: Fig. 1 x6, then
e----------------------------------------------------
b----------------------------------------------------
g----------------------------------------------------
d----------------------------------------------------
a-2---2-2--0--2-----0--2--0--2---0----2-----0--2--0--
d-2---2-2--0--2-----0--2--0--2---0----2-----0--2--0--
(1:20)-(2:27)
x3
e----------------------------------------------------
b----------------------------------------------------
g----------------------------------------------------
d-5--5------5--5------5--5------5--5-----------------
a-3--3------3--3------3--3------3--3-----------------
d-2--2------2--2------2--2------2--2-----------------
(2:43)
x8
e-------------------------------------------------------------
b-------------------------------------------------------------
g-----4---4/54------4---4/54------4---4/54------4----------
d-------------------------------------------------------------
a-------------------------------------------------------3-----
d-0h2---2--------0h2---2--------0h2---2--------0h2---2--3-----
(3:31)
x4
e---------------------------------
b---------------------------------
g---------------------------------
d-----------------------------3---
a---------------------------------
d-2---2-2---2-2br-2-2br-2-2-2-----
(3:43)
x2
e-----------------------------------------------------------------
b-----------------------------------------------------------------
g-----------------------------------------------------------------
d-----------------------------------------------------------------
a-2---2-2---2-2---2-2---2-2-2--3--2---2-2---2-2---2-2---2-2-2--3--
d-2---2-2---2-2---2-2---2-2-2--3--2---2-2---2-2---2-2---2-2-2--3--
e-----------------------------------------------------------------
b-----------------------------------------------------------------
g-----------------------------------------------------------------
d-----------------------------------------------------------------
a-2---2-2---2-2---2-2---2-2-2--3--2---2-2---2-2---2-2---2-3-3-----
d-2---2-2---2-2---2-2---2-2-2--3--2---2-2---2-2---2-2---2-3-3-----
(4:07)
x10
e-------------------------------------
b-------------------------------------
g--------------------------------5----
d--------------------------------3----
a--------------------------------3----
d-2---2-2---2-2br-2-2---3--2-2---3----
(4:37) w/ chorus effect
e-----------------------------------------------------------------------------
b-----------------------------------------------------------------------------
g-9-9---9--9--9--/16-171612-14h16-12h14--10---9--9--9--/17--9--14h16p14-14-
d-0-0---0--0--0-----------------------------0------0--0-----------------------
a-0-0---0--0--0-----------------------------0------0--0-----------------------
d-0-0---0--0--0-----------------------------0------0--0-----------------------
e-----------------------------------------------------------------
b-----------------------------------------------------------------
g------------------------------5-------------------------------5--
d------------------------------3-------------------------------3--
a-2---2-2---2-2---2-2--2--2-2--3--2---2-2---2-2---2-2--2--2-2--3--
d-2---2-2---2-2---2-2--2--2-2--3--2---2-2---2-2---2-2--2--2-2--3--
e-8---8----8---7---5------------------------------------
b-x---x----x---x---x------------------------------------
g-5---5----5---4---2--------12------12--11--------11p9--
d---------------------/10--------9---9---9------7-------
a-------------------------------------------------------
d-------------------------------------------------------
(4:55)
x11
e--------------------
b--------------------
g----------0---------
d----------4---------
a-2--2--------3--0---
d-2--2--------3--0---
(5:10)
let ring
e-------------------------------------------------------
b-------------------------------------------------------
g-------------------------------------------------------
d-------------------------------------------------------
a-2-----------------------------------------------------
d-2-----------------------------------------------------
(5:20)
Fig. 1 x6 then,
e-------------------------------------------------------
b-------------------------------------------------------
g-------------------------------------------------------
d-------------------------------------------------------
a-2---2-0---0-2--2--0--2--0--2---2-0---0-2--2--0--2--0--
d-2---2-0---0-2--2--0--2--0--2---2-0---0-2--2--0--2--0--
Outro: (5:40)
x3
e----------------------------------------------------
b----------------------------------------------------
g----------------------------------------------------
d-5--5------5--5------5--5------5--5-----------------
a-3--3------3--3------3--3------3--3-----------------
d-2--2------2--2------2--2------2--2-----------------
that’s all
trevor jones
[email protected]




Ваше мнение



Капча